  0
SECTION
  2
HEADER
  9
$ACADVER
  1
AC1015
  9
$ACADMAINTVER
 70
     6
  9
$DWGCODEPAGE
  3
ANSI_1254
  9
$INSBASE
 10
0.0
 20
0.0
 30
0.0
  9
$EXTMIN
 10
0.0
 20
0.0
 30
0.0
  9
$EXTMAX
 10
279.4
 20
215.9
 30
0.0
  9
$LIMMIN
 10
0.0
 20
0.0
  9
$LIMMAX
 10
279.4
 20
215.9
  9
$ORTHOMODE
 70
     0
  9
$REGENMODE
 70
     1
  9
$FILLMODE
 70
     1
  9
$QTEXTMODE
 70
     0
  9
$MIRRTEXT
 70
     1
  9
$LTSCALE
 40
1.0
  9
$ATTMODE
 70
     1
  9
$TEXTSIZE
 40
3.5
  9
$TRACEWID
 40
1.0
  9
$TEXTSTYLE
  7
Standard
  9
$CLAYER
  8
0
  9
$CELTYPE
  6
ByLayer
  9
$CECOLOR
 62
   256
  9
$CELTSCALE
 40
1.0
  9
$DISPSILH
 70
     0
  9
$DIMSCALE
 40
1.0
  9
$DIMASZ
 40
3.5
  9
$DIMEXO
 40
1.0
  9
$DIMDLI
 40
3.75
  9
$DIMRND
 40
0.0
  9
$DIMDLE
 40
0.0
  9
$DIMEXE
 40
1.0
  9
$DIMTP
 40
0.0
  9
$DIMTM
 40
0.0
  9
$DIMTXT
 40
3.5
  9
$DIMCEN
 40
2.5
  9
$DIMTSZ
 40
0.0
  9
$DIMTOL
 70
     0
  9
$DIMLIM
 70
     0
  9
$DIMTIH
 70
     1
  9
$DIMTOH
 70
     1
  9
$DIMSE1
 70
     0
  9
$DIMSE2
 70
     0
  9
$DIMTAD
 70
     1
  9
$DIMZIN
 70
     0
  9
$DIMBLK
  1

  9
$DIMASO
 70
     1
  9
$DIMSHO
 70
     1
  9
$DIMPOST
  1

  9
$DIMAPOST
  1

  9
$DIMALT
 70
     0
  9
$DIMALTD
 70
     3
  9
$DIMALTF
 40
0.0393700787
  9
$DIMLFAC
 40
1.0
  9
$DIMTOFL
 70
     1
  9
$DIMTVP
 40
0.0
  9
$DIMTIX
 70
     0
  9
$DIMSOXD
 70
     0
  9
$DIMSAH
 70
     0
  9
$DIMBLK1
  1

  9
$DIMBLK2
  1

  9
$DIMSTYLE
  2
ISO-25
  9
$DIMCLRD
 70
     0
  9
$DIMCLRE
 70
     0
  9
$DIMCLRT
 70
     0
  9
$DIMTFAC
 40
1.0
  9
$DIMGAP
 40
1.524
  9
$DIMJUST
 70
     0
  9
$DIMSD1
 70
     0
  9
$DIMSD2
 70
     0
  9
$DIMTOLJ
 70
     0
  9
$DIMTZIN
 70
     0
  9
$DIMALTZ
 70
     0
  9
$DIMALTTZ
 70
     0
  9
$DIMUPT
 70
     0
  9
$DIMDEC
 70
     2
  9
$DIMTDEC
 70
     2
  9
$DIMALTU
 70
     2
  9
$DIMALTTD
 70
     3
  9
$DIMTXSTY
  7
Standard
  9
$DIMAUNIT
 70
     0
  9
$DIMADEC
 70
     2
  9
$DIMALTRND
 40
0.0
  9
$DIMAZIN
 70
     0
  9
$DIMDSEP
 70
    44
  9
$DIMATFIT
 70
     3
  9
$DIMFRAC
 70
     0
  9
$DIMLDRBLK
  1

  9
$DIMLUNIT
 70
     2
  9
$DIMLWD
 70
    -2
  9
$DIMLWE
 70
    -2
  9
$DIMTMOVE
 70
     0
  9
$LUNITS
 70
     2
  9
$LUPREC
 70
     2
  9
$SKETCHINC
 40
1.0
  9
$FILLETRAD
 40
10.0
  9
$AUNITS
 70
     0
  9
$AUPREC
 70
     2
  9
$MENU
  1
.
  9
$ELEVATION
 40
0.0
  9
$PELEVATION
 40
0.0
  9
$THICKNESS
 40
0.0
  9
$LIMCHECK
 70
     0
  9
$CHAMFERA
 40
0.0
  9
$CHAMFERB
 40
0.0
  9
$CHAMFERC
 40
0.0
  9
$CHAMFERD
 40
0.0
  9
$SKPOLY
 70
     0
  9
$TDCREATE
 40
2460346.670750694
  9
$TDUCREATE
 40
2460346.545750694
  9
$TDUPDATE
 40
2460346.67075088
  9
$TDUUPDATE
 40
2460346.54575088
  9
$TDINDWG
 40
0.0000000116
  9
$TDUSRTIMER
 40
0.0000000116
  9
$USRTIMER
 70
     1
  9
$ANGBASE
 50
0.0
  9
$ANGDIR
 70
     0
  9
$PDMODE
 70
     0
  9
$PDSIZE
 40
-1.0
  9
$PLINEWID
 40
0.0
  9
$SPLFRAME
 70
     0
  9
$SPLINETYPE
 70
     6
  9
$SPLINESEGS
 70
     8
  9
$HANDSEED
  5
129
  9
$SURFTAB1
 70
     6
  9
$SURFTAB2
 70
     6
  9
$SURFTYPE
 70
     6
  9
$SURFU
 70
     6
  9
$SURFV
 70
     6
  9
$UCSBASE
  2

  9
$UCSNAME
  2

  9
$UCSORG
 10
0.0
 20
0.0
 30
0.0
  9
$UCSXDIR
 10
1.0
 20
0.0
 30
0.0
  9
$UCSYDIR
 10
0.0
 20
1.0
 30
0.0
  9
$UCSORTHOREF
  2

  9
$UCSORTHOVIEW
 70
     0
  9
$UCSORGTOP
 10
0.0
 20
0.0
 30
0.0
  9
$UCSORGBOTTOM
 10
0.0
 20
0.0
 30
0.0
  9
$UCSORGLEFT
 10
0.0
 20
0.0
 30
0.0
  9
$UCSORGRIGHT
 10
0.0
 20
0.0
 30
0.0
  9
$UCSORGFRONT
 10
0.0
 20
0.0
 30
0.0
  9
$UCSORGBACK
 10
0.0
 20
0.0
 30
0.0
  9
$PUCSBASE
  2

  9
$PUCSNAME
  2

  9
$PUCSORG
 10
0.0
 20
0.0
 30
0.0
  9
$PUCSXDIR
 10
1.0
 20
0.0
 30
0.0
  9
$PUCSYDIR
 10
0.0
 20
1.0
 30
0.0
  9
$PUCSORTHOREF
  2

  9
$PUCSORTHOVIEW
 70
     0
  9
$PUCSORGTOP
 10
0.0
 20
0.0
 30
0.0
  9
$PUCSORGBOTTOM
 10
0.0
 20
0.0
 30
0.0
  9
$PUCSORGLEFT
 10
0.0
 20
0.0
 30
0.0
  9
$PUCSORGRIGHT
 10
0.0
 20
0.0
 30
0.0
  9
$PUCSORGFRONT
 10
0.0
 20
0.0
 30
0.0
  9
$PUCSORGBACK
 10
0.0
 20
0.0
 30
0.0
  9
$USERI1
 70
     0
  9
$USERI2
 70
     0
  9
$USERI3
 70
     0
  9
$USERI4
 70
     0
  9
$USERI5
 70
     0
  9
$USERR1
 40
0.0
  9
$USERR2
 40
0.0
  9
$USERR3
 40
0.0
  9
$USERR4
 40
0.0
  9
$USERR5
 40
0.0
  9
$WORLDVIEW
 70
     1
  9
$SHADEDGE
 70
     3
  9
$SHADEDIF
 70
    70
  9
$TILEMODE
 70
     1
  9
$MAXACTVP
 70
    64
  9
$PINSBASE
 10
0.0
 20
0.0
 30
0.0
  9
$PLIMCHECK
 70
     0
  9
$PEXTMIN
 10
1.0000000000E+20
 20
1.0000000000E+20
 30
1.0000000000E+20
  9
$PEXTMAX
 10
-1.0000000000E+20
 20
-1.0000000000E+20
 30
-1.0000000000E+20
  9
$PLIMMIN
 10
0.0
 20
0.0
  9
$PLIMMAX
 10
420.0
 20
297.0
  9
$UNITMODE
 70
     0
  9
$VISRETAIN
 70
     1
  9
$PLINEGEN
 70
     0
  9
$PSLTSCALE
 70
     1
  9
$TREEDEPTH
 70
  3020
  9
$CMLSTYLE
  2
Standard
  9
$CMLJUST
 70
     0
  9
$CMLSCALE
 40
20.0
  9
$PROXYGRAPHICS
 70
     1
  9
$MEASUREMENT
 70
     1
  9
$CELWEIGHT
370
    -1
  9
$ENDCAPS
280
     0
  9
$JOINSTYLE
280
     0
  9
$LWDISPLAY
290
     1
  9
$INSUNITS
 70
     4
  9
$HYPERLINKBASE
  1

  9
$STYLESHEET
  1

  9
$XEDIT
290
     1
  9
$CEPSNTYPE
380
     0
  9
$PSTYLEMODE
290
     1
  9
$FINGERPRINTGUID
  2
{046e6fed-6ef1-46af-b0f8-a37888c0f4aa}
  9
$VERSIONGUID
  2
{FAEB1C32-E019-11D5-929B-00C0DF256EC4}
  9
$EXTNAMES
290
     1
  9
$PSVPSCALE
 40
0.0
  9
$OLESTARTUP
290
     0
  0
ENDSEC
  0
SECTION
  2
CLASSES
  0
CLASS
  1
ACDBDICTIONARYWDFLT
  2
AcDbDictionaryWithDefault
  3
ObjectDBX Classes
 90
        0
280
     0
281
     0
  0
CLASS
  1
VISUALSTYLE
  2
AcDbVisualStyle
  3
ObjectDBX Classes
 90
     4095
280
     0
281
     0
  0
CLASS
  1
MATERIAL
  2
AcDbMaterial
  3
ObjectDBX Classes
 90
     1153
280
     0
281
     0
  0
CLASS
  1
SCALE
  2
AcDbScale
  3
ObjectDBX Classes
 90
     1153
280
     0
281
     0
  0
CLASS
  1
TABLESTYLE
  2
AcDbTableStyle
  3
ObjectDBX Classes
 90
     4095
280
     0
281
     0
  0
CLASS
  1
MLEADERSTYLE
  2
AcDbMLeaderStyle
  3
ACDB_MLEADERSTYLE_CLASS
 90
     4095
280
     0
281
     0
  0
CLASS
  1
SUN
  2
AcDbSun
  3
SCENEOE
 90
     1153
280
     0
281
     0
  0
CLASS
  1
ACDBPLACEHOLDER
  2
AcDbPlaceHolder
  3
ObjectDBX Classes
 90
        0
280
     0
281
     0
  0
CLASS
  1
LAYOUT
  2
AcDbLayout
  3
ObjectDBX Classes
 90
        0
280
     0
281
     0
  0
ENDSEC
  0
SECTION
  2
TABLES
  0
TABLE
  2
VPORT
  5
8
330
0
100
AcDbSymbolTable
 70
     1
  0
VPORT
  5
29
330
8
100
AcDbSymbolTableRecord
100
AcDbViewportTableRecord
  2
*Active
 70
     0
 10
0.0
 20
0.0
 11
1.0
 21
1.0
 12
139.7
 22
107.95
 13
0.0
 23
0.0
 14
10.0
 24
10.0
 15
10.0
 25
10.0
 16
0.0
 26
0.0
 36
1.0
 17
0.0
 27
0.0
 37
0.0
 40
215.9
 41
1.2941176471
 42
50.0
 43
0.0
 44
0.0
 50
0.0
 51
0.0
 71
     0
 72
  2000
 73
     1
 74
     3
 75
     0
 76
     0
 77
     0
 78
     0
281
     0
 65
     1
110
0.0
120
0.0
130
0.0
111
1.0
121
0.0
131
0.0
112
0.0
122
1.0
132
0.0
 79
     0
146
0.0
  0
ENDTAB
  0
TABLE
  2
LTYPE
  5
5
330
0
100
AcDbSymbolTable
 70
     6
  0
LTYPE
  5
14
330
5
100
AcDbSymbolTableRecord
100
AcDbLinetypeTableRecord
  2
ByBlock
 70
     0
  3

 72
    65
 73
     0
 40
0.0
  0
LTYPE
  5
15
330
5
100
AcDbSymbolTableRecord
100
AcDbLinetypeTableRecord
  2
ByLayer
 70
     0
  3

 72
    65
 73
     0
 40
0.0
  0
LTYPE
  5
16
330
5
100
AcDbSymbolTableRecord
100
AcDbLinetypeTableRecord
  2
Continuous
 70
     0
  3
Solid line
 72
    65
 73
     0
 40
0.0
  0
LTYPE
  5
6E
330
5
100
AcDbSymbolTableRecord
100
AcDbLinetypeTableRecord
  2
HIDDEN
 70
     0
  3
Hidden __ __ __ __ __ __ __ __ __ __ __ __ __ __
 72
    65
 73
     2
 40
1.905
 49
1.27
 74
     0
 49
-0.635
 74
     0
  0
LTYPE
  5
6F
330
5
100
AcDbSymbolTableRecord
100
AcDbLinetypeTableRecord
  2
PHANTOM
 70
     0
  3
Phantom ______  __  __  ______  __  __  ______
 72
    65
 73
     6
 40
12.7
 49
6.35
 74
     0
 49
-1.27
 74
     0
 49
1.27
 74
     0
 49
-1.27
 74
     0
 49
1.27
 74
     0
 49
-1.27
 74
     0
  0
LTYPE
  5
70
330
5
100
AcDbSymbolTableRecord
100
AcDbLinetypeTableRecord
  2
CENTER
 70
     0
  3
Center ____ _ ____ _ ____ _ ____ _ ____ _ ____
 72
    65
 73
     4
 40
10.16
 49
6.35
 74
     0
 49
-1.27
 74
     0
 49
1.27
 74
     0
 49
-1.27
 74
     0
  0
LTYPE
  5
71
330
5
100
AcDbSymbolTableRecord
100
AcDbLinetypeTableRecord
  2
CENTERX2
 70
     0
  3
Center (2x) ________  __  ________  __  _____
 72
    65
 73
     4
 40
20.32
 49
12.7
 74
     0
 49
-2.54
 74
     0
 49
2.54
 74
     0
 49
-2.54
 74
     0
  0
LTYPE
  5
72
330
5
100
AcDbSymbolTableRecord
100
AcDbLinetypeTableRecord
  2
DOT2
 70
     0
  3
Dot (.5x) ........................................
 72
    65
 73
     2
 40
0.635
 49
0.0
 74
     0
 49
-0.635
 74
     0
  0
ENDTAB
  0
TABLE
  2
LAYER
  5
2
330
0
100
AcDbSymbolTable
 70
    17
  0
LAYER
  5
10
330
2
100
AcDbSymbolTableRecord
100
AcDbLayerTableRecord
  2
0
 70
     0
 62
     7
  6
Continuous
370
    -3
390
F
  0
LAYER
  5
73
330
2
100
AcDbSymbolTableRecord
100
AcDbLayerTableRecord
  2
FORMAT
 70
     0
 62
     7
  6
Continuous
370
    -3
390
F
  0
LAYER
  5
74
330
2
100
AcDbSymbolTableRecord
100
AcDbLayerTableRecord
  2
YARDIMCI_GEOMETRI
 70
     0
 62
    -6
  6
Continuous
290
     0
370
    -3
390
F
  0
LAYER
  5
75
330
2
100
AcDbSymbolTableRecord
100
AcDbLayerTableRecord
  2
SAYFA_CERCEVESI
 70
     0
 62
     7
  6
Continuous
370
    25
390
F
  0
LAYER
  5
76
330
2
100
AcDbSymbolTableRecord
100
AcDbLayerTableRecord
  2
ANTET
 70
     0
 62
     7
  6
Continuous
370
    -3
390
F
  0
LAYER
  5
77
330
2
100
AcDbSymbolTableRecord
100
AcDbLayerTableRecord
  2
OLCU
 70
     0
 62
   150
  6
Continuous
370
    -3
390
F
  0
LAYER
  5
78
330
2
100
AcDbSymbolTableRecord
100
AcDbLayerTableRecord
  2
METIN
 70
     0
 62
    96
  6
Continuous
370
    -3
390
F
  0
LAYER
  5
79
330
2
100
AcDbSymbolTableRecord
100
AcDbLayerTableRecord
  2
BALON
 70
     0
 62
     5
  6
Continuous
370
    -3
390
F
  0
LAYER
  5
7A
330
2
100
AcDbSymbolTableRecord
100
AcDbLayerTableRecord
  2
VURGU
 70
     0
 62
     7
  6
Continuous
370
    -3
390
F
  0
LAYER
  5
7B
330
2
100
AcDbSymbolTableRecord
100
AcDbLayerTableRecord
  2
SILIK
 70
     0
 62
     7
  6
Continuous
370
    -3
390
F
  0
LAYER
  5
7C
330
2
100
AcDbSymbolTableRecord
100
AcDbLayerTableRecord
  2
MODEL
 70
     0
 62
     7
  6
Continuous
370
    -3
390
F
  0
LAYER
  5
7D
330
2
100
AcDbSymbolTableRecord
100
AcDbLayerTableRecord
  2
DETAYLANDıRMA
 70
     0
 62
   190
  6
Continuous
370
    -3
390
F
  0
LAYER
  5
7E
330
2
100
AcDbSymbolTableRecord
100
AcDbLayerTableRecord
  2
TOLERANS
 70
     0
 62
   230
  6
Continuous
370
    -3
390
F
  0
LAYER
  5
7F
330
2
100
AcDbSymbolTableRecord
100
AcDbLayerTableRecord
  2
MERKEZ_CIZGILERI
 70
     0
 62
    30
  6
Continuous
370
    -3
390
F
  0
LAYER
  5
80
330
2
100
AcDbSymbolTableRecord
100
AcDbLayerTableRecord
  2
KESIT-DETAY_CIZGILERI
 70
     0
 62
     7
  6
Continuous
370
    -3
390
F
  0
LAYER
  5
81
330
2
100
AcDbSymbolTableRecord
100
AcDbLayerTableRecord
  2
\U+041E\U+0421\U+0415\U+0412\U+042B\U+0415
 70
     0
 62
     7
  6
Continuous
370
    -3
390
F
  0
LAYER
  5
82
330
2
100
AcDbSymbolTableRecord
100
AcDbLayerTableRecord
  2
\U+0412\U+041E\U+0414\U+042F\U+041D\U+042B\U+0415_\U+0417\U+041D\U+0410\U+041A\U+0418
 70
     0
 62
    11
  6
Continuous
370
    -3
390
F
  0
ENDTAB
  0
TABLE
  2
STYLE
  5
3
330
0
100
AcDbSymbolTable
 70
     1
  0
STYLE
  5
11
330
3
100
AcDbSymbolTableRecord
100
AcDbTextStyleTableRecord
  2
Standard
 70
     0
 40
0.0
 41
1.0
 50
0.0
 71
     0
 42
3.5
  3
txt
  4

  0
ENDTAB
  0
TABLE
  2
VIEW
  5
6
330
0
100
AcDbSymbolTable
 70
     0
  0
ENDTAB
  0
TABLE
  2
UCS
  5
7
330
0
100
AcDbSymbolTable
 70
     0
  0
ENDTAB
  0
TABLE
  2
APPID
  5
9
330
0
100
AcDbSymbolTable
 70
     1
  0
APPID
  5
12
330
9
100
AcDbSymbolTableRecord
100
AcDbRegAppTableRecord
  2
ACAD
 70
     0
  0
ENDTAB
  0
TABLE
  2
DIMSTYLE
  5
A
330
0
100
AcDbSymbolTable
 70
     1
100
AcDbDimStyleTable
  0
DIMSTYLE
105
27
330
A
100
AcDbSymbolTableRecord
100
AcDbDimStyleTableRecord
  2
ISO-25
 70
     0
 41
2.5
 42
0.625
 43
3.75
 44
1.25
 73
     0
 74
     0
 77
     1
 78
     8
140
2.5
141
2.5
143
0.0393700787
147
0.625
171
     3
172
     1
178
     0
271
     2
272
     2
274
     3
278
    44
283
     0
284
     8
340
11
  0
ENDTAB
  0
TABLE
  2
BLOCK_RECORD
  5
1
330
0
100
AcDbSymbolTable
 70
     4
  0
BLOCK_RECORD
  5
1F
330
1
100
AcDbSymbolTableRecord
100
AcDbBlockTableRecord
  2
*Model_Space
340
22
  0
BLOCK_RECORD
  5
1B
330
1
100
AcDbSymbolTableRecord
100
AcDbBlockTableRecord
  2
*Paper_Space
340
1E
  0
BLOCK_RECORD
  5
23
330
1
100
AcDbSymbolTableRecord
100
AcDbBlockTableRecord
  2
*Paper_Space0
340
26
  0
BLOCK_RECORD
  5
8E
330
1
100
AcDbSymbolTableRecord
100
AcDbBlockTableRecord
  2
SW_CENTERMARKSYMBOL_0
340
0
102
{BLKREFS
331
99
102
}
  0
BLOCK_RECORD
  5
C8
330
1
100
AcDbSymbolTableRecord
100
AcDbBlockTableRecord
  2
SW_CENTERMARKSYMBOL_1
340
0
102
{BLKREFS
331
D3
102
}
  0
BLOCK_RECORD
  5
D4
330
1
100
AcDbSymbolTableRecord
100
AcDbBlockTableRecord
  2
SW_CENTERMARKSYMBOL_2
340
0
102
{BLKREFS
331
DF
102
}
  0
ENDTAB
  0
ENDSEC
  0
SECTION
  2
BLOCKS
  0
BLOCK
  5
20
330
1F
100
AcDbEntity
  8
0
100
AcDbBlockBegin
  2
*Model_Space
 70
     0
 10
0.0
 20
0.0
 30
0.0
  3
*Model_Space
  1

  0
ENDBLK
  5
21
330
1F
100
AcDbEntity
  8
0
100
AcDbBlockEnd
  0
BLOCK
  5
1C
330
1B
100
AcDbEntity
 67
     1
  8
0
100
AcDbBlockBegin
  2
*Paper_Space
 70
     0
 10
0.0
 20
0.0
 30
0.0
  3
*Paper_Space
  1

  0
ENDBLK
  5
1D
330
1B
100
AcDbEntity
 67
     1
  8
0
100
AcDbBlockEnd
  0
BLOCK
  5
24
330
23
100
AcDbEntity
  8
0
100
AcDbBlockBegin
  2
*Paper_Space0
 70
     0
 10
0.0
 20
0.0
 30
0.0
  3
*Paper_Space0
  1

  0
ENDBLK
  5
25
330
23
100
AcDbEntity
  8
0
100
AcDbBlockEnd
  0
BLOCK
  5
8F
330
8E
100
AcDbEntity
  8
0
100
AcDbBlockBegin
  2
SW_CENTERMARKSYMBOL_0
 70
     0
 10
0.0
 20
0.0
 30
0.0
  3
SW_CENTERMARKSYMBOL_0
  1

  0
LINE
  5
91
330
8E
100
AcDbEntity
  8
FORMAT
 62
     0
100
AcDbLine
 10
0.0
 20
0.0
 30
0.0
 11
0.0
 21
2.5
 31
0.0
  0
LINE
  5
92
330
8E
100
AcDbEntity
  8
FORMAT
 62
     0
100
AcDbLine
 10
0.0
 20
0.0
 30
0.0
 11
-2.5
 21
0.0
 31
0.0
  0
LINE
  5
93
330
8E
100
AcDbEntity
  8
FORMAT
 62
     0
100
AcDbLine
 10
0.0
 20
0.0
 30
0.0
 11
0.0
 21
-2.5
 31
0.0
  0
LINE
  5
94
330
8E
100
AcDbEntity
  8
FORMAT
 62
     0
100
AcDbLine
 10
0.0
 20
0.0
 30
0.0
 11
2.5
 21
0.0
 31
0.0
  0
LINE
  5
95
330
8E
100
AcDbEntity
  8
FORMAT
 62
     0
100
AcDbLine
 10
0.0
 20
5.0
 30
0.0
 11
0.0
 21
42.5
 31
0.0
  0
LINE
  5
96
330
8E
100
AcDbEntity
  8
FORMAT
 62
     0
100
AcDbLine
 10
-5.0
 20
0.0
 30
0.0
 11
-42.5
 21
0.0
 31
0.0
  0
LINE
  5
97
330
8E
100
AcDbEntity
  8
FORMAT
 62
     0
100
AcDbLine
 10
0.0
 20
-5.0
 30
0.0
 11
0.0
 21
-42.5
 31
0.0
  0
LINE
  5
98
330
8E
100
AcDbEntity
  8
FORMAT
 62
     0
100
AcDbLine
 10
5.0
 20
0.0
 30
0.0
 11
42.5
 21
0.0
 31
0.0
  0
ENDBLK
  5
90
330
8E
100
AcDbEntity
  8
0
100
AcDbBlockEnd
  0
BLOCK
  5
C9
330
C8
100
AcDbEntity
  8
0
100
AcDbBlockBegin
  2
SW_CENTERMARKSYMBOL_1
 70
     0
 10
0.0
 20
0.0
 30
0.0
  3
SW_CENTERMARKSYMBOL_1
  1

  0
LINE
  5
CB
330
C8
100
AcDbEntity
  8
FORMAT
 62
     0
100
AcDbLine
 10
0.0
 20
0.0
 30
0.0
 11
0.0
 21
2.5
 31
0.0
  0
LINE
  5
CC
330
C8
100
AcDbEntity
  8
FORMAT
 62
     0
100
AcDbLine
 10
0.0
 20
0.0
 30
0.0
 11
-2.5
 21
0.0
 31
0.0
  0
LINE
  5
CD
330
C8
100
AcDbEntity
  8
FORMAT
 62
     0
100
AcDbLine
 10
0.0
 20
0.0
 30
0.0
 11
0.0
 21
-2.5
 31
0.0
  0
LINE
  5
CE
330
C8
100
AcDbEntity
  8
FORMAT
 62
     0
100
AcDbLine
 10
0.0
 20
0.0
 30
0.0
 11
2.5
 21
0.0
 31
0.0
  0
LINE
  5
CF
330
C8
100
AcDbEntity
  8
FORMAT
 62
     0
100
AcDbLine
 10
0.0
 20
5.0
 30
0.0
 11
0.0
 21
9.5
 31
0.0
  0
LINE
  5
D0
330
C8
100
AcDbEntity
  8
FORMAT
 62
     0
100
AcDbLine
 10
-5.0
 20
0.0
 30
0.0
 11
-9.5
 21
0.0
 31
0.0
  0
LINE
  5
D1
330
C8
100
AcDbEntity
  8
FORMAT
 62
     0
100
AcDbLine
 10
0.0
 20
-5.0
 30
0.0
 11
0.0
 21
-9.5
 31
0.0
  0
LINE
  5
D2
330
C8
100
AcDbEntity
  8
FORMAT
 62
     0
100
AcDbLine
 10
5.0
 20
0.0
 30
0.0
 11
9.5
 21
0.0
 31
0.0
  0
ENDBLK
  5
CA
330
C8
100
AcDbEntity
  8
0
100
AcDbBlockEnd
  0
BLOCK
  5
D5
330
D4
100
AcDbEntity
  8
0
100
AcDbBlockBegin
  2
SW_CENTERMARKSYMBOL_2
 70
     0
 10
0.0
 20
0.0
 30
0.0
  3
SW_CENTERMARKSYMBOL_2
  1

  0
LINE
  5
D7
330
D4
100
AcDbEntity
  8
FORMAT
 62
     0
100
AcDbLine
 10
0.0
 20
0.0
 30
0.0
 11
0.0
 21
2.5
 31
0.0
  0
LINE
  5
D8
330
D4
100
AcDbEntity
  8
FORMAT
 62
     0
100
AcDbLine
 10
0.0
 20
0.0
 30
0.0
 11
-2.5
 21
0.0
 31
0.0
  0
LINE
  5
D9
330
D4
100
AcDbEntity
  8
FORMAT
 62
     0
100
AcDbLine
 10
0.0
 20
0.0
 30
0.0
 11
0.0
 21
-2.5
 31
0.0
  0
LINE
  5
DA
330
D4
100
AcDbEntity
  8
FORMAT
 62
     0
100
AcDbLine
 10
0.0
 20
0.0
 30
0.0
 11
2.5
 21
0.0
 31
0.0
  0
LINE
  5
DB
330
D4
100
AcDbEntity
  8
FORMAT
 62
     0
100
AcDbLine
 10
0.0
 20
5.0
 30
0.0
 11
0.0
 21
9.5
 31
0.0
  0
LINE
  5
DC
330
D4
100
AcDbEntity
  8
FORMAT
 62
     0
100
AcDbLine
 10
-5.0
 20
0.0
 30
0.0
 11
-9.5
 21
0.0
 31
0.0
  0
LINE
  5
DD
330
D4
100
AcDbEntity
  8
FORMAT
 62
     0
100
AcDbLine
 10
0.0
 20
-5.0
 30
0.0
 11
0.0
 21
-9.5
 31
0.0
  0
LINE
  5
DE
330
D4
100
AcDbEntity
  8
FORMAT
 62
     0
100
AcDbLine
 10
5.0
 20
0.0
 30
0.0
 11
9.5
 21
0.0
 31
0.0
  0
ENDBLK
  5
D6
330
D4
100
AcDbEntity
  8
0
100
AcDbBlockEnd
  0
ENDSEC
  0
SECTION
  2
ENTITIES
  0
LINE
  5
83
330
1F
100
AcDbEntity
  8
0
  6
Continuous
 62
     7
370
    25
100
AcDbLine
 10
129.1701403815
 20
78.2885084802
 30
0.0
 11
129.1701403815
 21
53.1754170122
 31
0.0
  0
LINE
  5
84
330
1F
100
AcDbEntity
  8
0
  6
Continuous
 62
     7
370
    25
100
AcDbLine
 10
143.1701403815
 20
53.1754170122
 30
0.0
 11
143.1701403815
 21
78.2914167441
 31
0.0
  0
LINE
  5
85
330
1F
100
AcDbEntity
  8
0
  6
Continuous
 62
     7
370
    25
100
AcDbLine
 10
129.1701403815
 20
78.2926796772
 30
0.0
 11
129.1701403815
 21
78.2885084802
 31
0.0
  0
LINE
  5
86
330
1F
100
AcDbEntity
  8
0
  6
Continuous
 62
     7
370
    25
100
AcDbLine
 10
143.1701403815
 20
78.2914167441
 30
0.0
 11
143.1701403815
 21
78.2926796772
 31
0.0
  0
CIRCLE
  5
87
330
1F
100
AcDbEntity
  8
0
  6
Continuous
 62
     7
370
    25
100
AcDbCircle
 10
136.1701403815
 20
117.6754170122
 30
0.0
 40
40.0
  0
CIRCLE
  5
88
330
1F
100
AcDbEntity
  8
0
  6
Continuous
 62
     7
370
    25
100
AcDbCircle
 10
136.1701403815
 20
117.6754170122
 30
0.0
 40
31.5
  0
LINE
  5
89
330
1F
100
AcDbEntity
  8
0
  6
Continuous
 62
     7
370
    25
100
AcDbLine
 10
136.1701403815
 20
53.1754170122
 30
0.0
 11
143.1701403815
 21
53.1754170122
 31
0.0
  0
LINE
  5
8A
330
1F
100
AcDbEntity
  8
0
  6
Continuous
 62
     7
370
    25
100
AcDbLine
 10
129.1701403815
 20
53.1754170122
 30
0.0
 11
136.1701403815
 21
53.1754170122
 31
0.0
  0
CIRCLE
  5
8B
330
1F
100
AcDbEntity
  8
0
  6
Continuous
 62
     7
370
    25
100
AcDbCircle
 10
136.1701403815
 20
117.6754170122
 30
0.0
 40
30.21795815861773
  0
CIRCLE
  5
8C
330
1F
100
AcDbEntity
  8
0
  6
Continuous
 62
     7
370
    25
100
AcDbCircle
 10
136.1701403815
 20
117.6754170122
 30
0.0
 40
21.28204184138227
  0
CIRCLE
  5
8D
330
1F
100
AcDbEntity
  8
0
  6
Continuous
 62
     7
370
    25
100
AcDbCircle
 10
136.1701403815
 20
117.6754170122
 30
0.0
 40
20.0
  0
INSERT
  5
99
330
1F
100
AcDbEntity
  8
FORMAT
 62
     7
100
AcDbBlockReference
  2
SW_CENTERMARKSYMBOL_0
 10
136.1701403815
 20
117.6754170122
 30
0.0
  0
LINE
  5
9A
330
1F
100
AcDbEntity
  8
0
  6
Continuous
 62
     7
370
    25
100
AcDbLine
 10
-12.0710777845
 20
157.6754170122
 30
0.0
 11
-62.697479588
 21
157.6754170122
 31
0.0
  0
LINE
  5
9B
330
1F
100
AcDbEntity
  8
0
  6
Continuous
 62
     7
370
    25
100
AcDbLine
 10
-47.7163145374
 20
77.6754170122
 30
0.0
 11
-12.0710777845
 21
77.6754170122
 31
0.0
  0
LINE
  5
9C
330
1F
100
AcDbEntity
  8
0
  6
Continuous
 62
     7
370
    25
100
AcDbLine
 10
-62.697479588
 20
77.6754170122
 30
0.0
 11
-61.697479588
 21
77.6754170122
 31
0.0
  0
ARC
  5
9D
330
1F
100
AcDbEntity
  8
0
  6
Continuous
 62
     7
370
    25
100
AcDbCircle
 10
-12.0710777845
 20
155.6754170122
 30
0.0
 40
2.000000000000007
100
AcDbArc
 50
21.0375110254
 51
90.0
  0
ARC
  5
9E
330
1F
100
AcDbEntity
  8
0
  6
Continuous
 62
     7
370
    25
100
AcDbCircle
 10
-12.0710777845
 20
79.6754170122
 30
0.0
 40
2.0
100
AcDbArc
 50
270.0
 51
338.9624889746
  0
LINE
  5
9F
330
1F
100
AcDbEntity
  8
0
  6
Continuous
 62
     7
370
    25
100
AcDbLine
 10
-10.2043865721
 20
78.9574588536
 30
0.0
 11
-6.1905726039
 21
89.3933751709
 31
0.0
  0
LINE
  5
A0
330
1F
100
AcDbEntity
  8
0
  6
Continuous
 62
     7
370
    25
100
AcDbLine
 10
-6.1905726039
 20
145.9574588536
 30
0.0
 11
-10.2043865721
 21
156.3933751709
 31
0.0
  0
ARC
  5
A1
330
1F
100
AcDbEntity
  8
0
  6
Continuous
 62
     7
370
    25
100
AcDbCircle
 10
-4.3238813915
 20
146.6754170122
 30
0.0
 40
2.000000000000011
100
AcDbArc
 50
201.0375110254
 51
270.0
  0
ARC
  5
A2
330
1F
100
AcDbEntity
  8
0
  6
Continuous
 62
     7
370
    25
100
AcDbCircle
 10
-4.3238813915
 20
88.6754170122
 30
0.0
 40
2.0
100
AcDbArc
 50
90.0
 51
158.9624889746
  0
LINE
  5
A3
330
1F
100
AcDbEntity
  8
0
  6
Continuous
 62
     7
370
    25
100
AcDbLine
 10
39.302520412
 20
144.6754170122
 30
0.0
 11
-4.3238813915
 21
144.6754170122
 31
0.0
  0
LINE
  5
A4
330
1F
100
AcDbEntity
  8
0
  6
Continuous
 62
     7
370
    25
100
AcDbLine
 10
38.2900955022
 20
90.6754170122
 30
0.0
 11
39.302520412
 21
90.6754170122
 31
0.0
  0
LINE
  5
A5
330
1F
100
AcDbEntity
  8
0
  6
Continuous
 62
     7
370
    25
100
AcDbLine
 10
-4.3238813915
 20
90.6754170122
 30
0.0
 11
24.302520412
 21
90.6754170122
 31
0.0
  0
LINE
  5
A6
330
1F
100
AcDbEntity
  8
0
  6
Continuous
 62
     7
370
    25
100
AcDbLine
 10
24.302520412
 20
90.6754170122
 30
0.0
 11
24.302520412
 21
72.6754170122
 31
0.0
  0
LINE
  5
A7
330
1F
100
AcDbEntity
  8
0
  6
Continuous
 62
     7
370
    25
100
AcDbLine
 10
38.302520412
 20
72.6754170122
 30
0.0
 11
38.302520412
 21
90.6786167457
 31
0.0
  0
LINE
  5
A8
330
1F
100
AcDbEntity
  8
0
  6
Continuous
 62
     7
370
    25
100
AcDbLine
 10
-61.697479588
 20
77.6754170122
 30
0.0
 11
-61.697479588
 21
53.1754170122
 31
0.0
  0
LINE
  5
A9
330
1F
100
AcDbEntity
  8
0
  6
Continuous
 62
     7
370
    25
100
AcDbLine
 10
-47.697479588
 20
53.1754170122
 30
0.0
 11
-47.697479588
 21
77.678699772
 31
0.0
  0
LINE
  5
AA
330
1F
100
AcDbEntity
  8
0
  6
Continuous
 62
     7
370
    25
100
AcDbLine
 10
-62.697479588
 20
157.6754170122
 30
0.0
 11
-62.697479588
 21
77.6754170122
 31
0.0
  0
SPLINE
  5
AB
330
1F
100
AcDbEntity
  8
0
  6
Continuous
 62
     7
370
    25
100
AcDbSpline
210
0.0
220
0.0
230
1.0
 70
     8
 71
     3
 72
    26
 73
    22
 74
     0
 42
0.00000001
 43
0.00000001
 40
0.0
 40
0.0
 40
0.0
 40
0.0
 40
0.0142484644275621
 40
0.0682047854705339
 40
0.1202918722527089
 40
0.1738623030885348
 40
0.2264594863351627
 40
0.2805475599452508
 40
0.3337266108351127
 40
0.3884598919559
 40
0.4413831263968198
 40
0.4958835309922007
 40
0.5480923534488621
 40
0.6018209588757731
 40
0.6539787920249513
 40
0.7076114857205102
 40
0.7604510402235319
 40
0.8147999241716332
 40
0.8680009186374209
 40
0.9227729532218942
 40
1.0
 40
1.0
 40
1.0
 40
1.0
 10
-47.71631453740206
 20
77.6787042944389
 30
0.0
 10
-47.71076551787045
 20
77.67773594533998
 30
0.0
 10
-47.6842033792871
 20
77.67310063583774
 30
0.0
 10
-47.83249607616001
 20
77.69907689669745
 30
0.0
 10
-48.16409306680977
 20
77.75513499252541
 30
0.0
 10
-48.68639368000405
 20
77.83809032785878
 30
0.0
 10
-49.377815121692
 20
77.93742596728337
 30
0.0
 10
-50.21689252343925
 20
78.04206763633478
 30
0.0
 10
-51.19431091468328
 20
78.14161959210757
 30
0.0
 10
-52.26603809709773
 20
78.2229458633441
 30
0.0
 10
-53.41718307357844
 20
78.27764138835649
 30
0.0
 10
-54.58822603841701
 20
78.2984345467078
 30
0.0
 10
-55.76756546998173
 20
78.28382245403338
 30
0.0
 10
-56.89981713055065
 20
78.23634100200366
 30
0.0
 10
-57.97913844720443
 20
78.16066163053952
 30
0.0
 10
-58.96144884494301
 20
78.066125657633
 30
0.0
 10
-59.83675382917323
 20
77.96146120091434
 30
0.0
 10
-60.56705912744128
 20
77.85938017269754
 30
0.0
 10
-61.13440458233163
 20
77.77107902613325
 30
0.0
 10
-61.59115746832647
 20
77.694310653638
 30
0.0
 10
-61.65823523842905
 20
77.682390807247
 30
0.0
 10
-61.69747958798065
 20
77.67541701223782
 30
0.0
  0
LINE
  5
AC
330
1F
100
AcDbEntity
  8
0
  6
Continuous
 62
     7
370
    25
100
AcDbLine
 10
39.302520412
 20
144.6754170122
 30
0.0
 11
39.302520412
 21
90.6754170122
 31
0.0
  0
SPLINE
  5
AD
330
1F
100
AcDbEntity
  8
0
  6
Continuous
 62
     7
370
    25
100
AcDbSpline
210
0.0
220
0.0
230
1.0
 70
     8
 71
     3
 72
    27
 73
    23
 74
     0
 42
0.00000001
 43
0.00000001
 40
0.0
 40
0.0
 40
0.0
 40
0.0
 40
0.0081703775861777
 40
0.0616105085463248
 40
0.1127094864232931
 40
0.1652394756467971
 40
0.2173174635717511
 40
0.2708291521838105
 40
0.3242471723335072
 40
0.3792291060655811
 40
0.4322794340942276
 40
0.486965702700811
 40
0.5384021413012581
 40
0.5913539033072563
 40
0.6424883807252034
 40
0.6950291069282183
 40
0.7475922251215764
 40
0.8016202667159388
 40
0.8551611330391973
 40
0.9103070448520718
 40
0.9546784268620595
 40
1.0
 40
1.0
 40
1.0
 40
1.0
 10
38.29009550218654
 20
90.67862616358029
 30
0.0
 10
38.29405575103635
 20
90.67760342172541
 30
0.0
 10
38.32391886850341
 20
90.66989121440994
 30
0.0
 10
38.19439363714255
 20
90.70353321353059
 30
0.0
 10
37.89393619275732
 20
90.77930437174709
 30
0.0
 10
37.40497173306965
 20
90.89601610312107
 30
0.0
 10
36.74983821423304
 20
91.03890458001267
 30
0.0
 10
35.94155666569666
 20
91.19393039186518
 30
0.0
 10
34.98773358109891
 20
91.34588049592263
 30
0.0
 10
33.92837024847376
 20
91.47446808344965
 30
0.0
 10
32.7820839239345
 20
91.56532740333401
 30
0.0
 10
31.61545168216693
 20
91.6055890224593
 30
0.0
 10
30.44124261116283
 20
91.59282042523087
 30
0.0
 10
29.31749481115078
 20
91.53088562005865
 30
0.0
 10
28.24276241029154
 20
91.42635397105269
 30
0.0
 10
27.25443932772816
 20
91.29177541063532
 30
0.0
 10
26.35985320760569
 20
91.13852507596322
 30
0.0
 10
25.59673623937856
 20
90.98450340761583
 30
0.0
 10
24.98189061184285
 20
90.84511929579045
 30
0.0
 10
24.57739949709857
 20
90.74589851431283
 30
0.0
 10
24.34362379860551
 20
90.6861261341651
 30
0.0
 10
24.31631796525331
 20
90.67901184205971
 30
0.0
 10
24.30252041201935
 20
90.67541701223782
 30
0.0
  0
LINE
  5
AE
330
1F
100
AcDbEntity
  8
0
  6
Continuous
 62
     7
370
    25
100
AcDbLine
 10
24.302520412
 20
72.6754170122
 30
0.0
 11
38.302520412
 21
72.6754170122
 31
0.0
  0
LINE
  5
AF
330
1F
100
AcDbEntity
  8
0
  6
Continuous
 62
     7
370
    25
100
AcDbLine
 10
-61.697479588
 20
53.1754170122
 30
0.0
 11
-47.697479588
 21
53.1754170122
 31
0.0
  0
LINE
  5
B0
330
1F
100
AcDbEntity
  8
0
  6
Continuous
 62
     1
370
    25
100
AcDbLine
 10
-12.0710777845
 20
157.6754170122
 30
0.0
 11
-12.0710777845
 21
77.6754170122
 31
0.0
  0
LINE
  5
B1
330
1F
100
AcDbEntity
  8
0
  6
Continuous
 62
     1
370
    25
100
AcDbLine
 10
-10.2043865721
 20
156.3933751709
 30
0.0
 11
-10.2043865721
 21
78.9574588536
 31
0.0
  0
LINE
  5
B2
330
1F
100
AcDbEntity
  8
0
  6
Continuous
 62
     1
370
    25
100
AcDbLine
 10
-6.1905726039
 20
145.9574588536
 30
0.0
 11
-6.1905726039
 21
89.3933751709
 31
0.0
  0
LINE
  5
B3
330
1F
100
AcDbEntity
  8
0
  6
Continuous
 62
     1
370
    25
100
AcDbLine
 10
-4.3238813915
 20
144.6754170122
 30
0.0
 11
-4.3238813915
 21
90.6754170122
 31
0.0
  0
LINE
  5
B4
330
1F
100
AcDbEntity
  8
0
  6
Continuous
 62
     7
370
    25
100
AcDbLine
 10
176.1701403815
 20
235.2651791865
 30
0.0
 11
176.1701403815
 21
285.89158099
 31
0.0
  0
LINE
  5
B5
330
1F
100
AcDbEntity
  8
0
  6
Continuous
 62
     7
370
    25
100
AcDbLine
 10
96.1701403815
 20
285.89158099
 30
0.0
 11
96.1701403815
 21
235.2651791865
 31
0.0
  0
ARC
  5
B6
330
1F
100
AcDbEntity
  8
0
  6
Continuous
 62
     7
370
    25
100
AcDbCircle
 10
174.1701403815
 20
235.2651791865
 30
0.0
 40
2.000000000000003
100
AcDbArc
 50
291.0375110254
 51
0.0
  0
ARC
  5
B7
330
1F
100
AcDbEntity
  8
0
  6
Continuous
 62
     7
370
    25
100
AcDbCircle
 10
98.1701403815
 20
235.2651791865
 30
0.0
 40
2.000000000000014
100
AcDbArc
 50
180.0
 51
248.9624889746
  0
LINE
  5
B8
330
1F
100
AcDbEntity
  8
0
  6
Continuous
 62
     7
370
    25
100
AcDbLine
 10
97.4521822229
 20
233.3984879741
 30
0.0
 11
107.8880985401
 21
229.3846740059
 31
0.0
  0
LINE
  5
B9
330
1F
100
AcDbEntity
  8
0
  6
Continuous
 62
     7
370
    25
100
AcDbLine
 10
164.4521822229
 20
229.3846740059
 30
0.0
 11
174.8880985401
 21
233.3984879741
 31
0.0
  0
ARC
  5
BA
330
1F
100
AcDbEntity
  8
0
  6
Continuous
 62
     7
370
    25
100
AcDbCircle
 10
165.1701403815
 20
227.5179827935
 30
0.0
 40
2.000000000000013
100
AcDbArc
 50
111.0375110254
 51
180.0
  0
ARC
  5
BB
330
1F
100
AcDbEntity
  8
0
  6
Continuous
 62
     7
370
    25
100
AcDbCircle
 10
107.1701403815
 20
227.5179827935
 30
0.0
 40
2.000000000000003
100
AcDbArc
 50
0.0
 51
68.9624889746
  0
LINE
  5
BC
330
1F
100
AcDbEntity
  8
0
  6
Continuous
 62
     7
370
    25
100
AcDbLine
 10
163.1701403815
 20
183.89158099
 30
0.0
 11
163.1701403815
 21
227.5179827935
 31
0.0
  0
LINE
  5
BD
330
1F
100
AcDbEntity
  8
0
  6
Continuous
 62
     7
370
    25
100
AcDbLine
 10
109.1701403815
 20
227.5179827935
 30
0.0
 11
109.1701403815
 21
183.89158099
 31
0.0
  0
CIRCLE
  5
BE
330
1F
100
AcDbEntity
  8
0
  6
Continuous
 62
     7
370
    25
100
AcDbCircle
 10
136.1701403815
 20
277.89158099
 30
0.0
 40
7.0
  0
CIRCLE
  5
BF
330
1F
100
AcDbEntity
  8
0
  6
Continuous
 62
     7
370
    25
100
AcDbCircle
 10
136.1701403815
 20
277.89158099
 30
0.0
 40
5.0
  0
CIRCLE
  5
C0
330
1F
100
AcDbEntity
  8
0
  6
Continuous
 62
     7
370
    25
100
AcDbCircle
 10
136.1701403815
 20
191.89158099
 30
0.0
 40
7.000000000000028
  0
CIRCLE
  5
C1
330
1F
100
AcDbEntity
  8
0
  6
Continuous
 62
     7
370
    25
100
AcDbCircle
 10
136.1701403815
 20
191.89158099
 30
0.0
 40
5.000000000000028
  0
LINE
  5
C2
330
1F
100
AcDbEntity
  8
0
  6
Continuous
 62
     7
370
    25
100
AcDbLine
 10
176.1701403815
 20
285.89158099
 30
0.0
 11
96.1701403815
 21
285.89158099
 31
0.0
  0
LINE
  5
C3
330
1F
100
AcDbEntity
  8
0
  6
Continuous
 62
     7
370
    25
100
AcDbLine
 10
163.1701403815
 20
183.89158099
 30
0.0
 11
109.1701403815
 21
183.89158099
 31
0.0
  0
LINE
  5
C4
330
1F
100
AcDbEntity
  8
0
  6
Continuous
 62
     1
370
    25
100
AcDbLine
 10
176.1701403815
 20
235.2651791865
 30
0.0
 11
96.1701403815
 21
235.2651791865
 31
0.0
  0
LINE
  5
C5
330
1F
100
AcDbEntity
  8
0
  6
Continuous
 62
     1
370
    25
100
AcDbLine
 10
174.8880985401
 20
233.3984879741
 30
0.0
 11
97.4521822229
 21
233.3984879741
 31
0.0
  0
LINE
  5
C6
330
1F
100
AcDbEntity
  8
0
  6
Continuous
 62
     1
370
    25
100
AcDbLine
 10
164.4521822229
 20
229.3846740059
 30
0.0
 11
107.8880985401
 21
229.3846740059
 31
0.0
  0
LINE
  5
C7
330
1F
100
AcDbEntity
  8
0
  6
Continuous
 62
     1
370
    25
100
AcDbLine
 10
163.1701403815
 20
227.5179827935
 30
0.0
 11
109.1701403815
 21
227.5179827935
 31
0.0
  0
INSERT
  5
D3
330
1F
100
AcDbEntity
  8
FORMAT
 62
     7
100
AcDbBlockReference
  2
SW_CENTERMARKSYMBOL_1
 10
136.1701403815
 20
191.89158099
 30
0.0
  0
INSERT
  5
DF
330
1F
100
AcDbEntity
  8
FORMAT
 62
     7
100
AcDbBlockReference
  2
SW_CENTERMARKSYMBOL_2
 10
136.1701403815
 20
277.89158099
 30
0.0
  0
LINE
  5
E0
330
1F
100
AcDbEntity
  8
0
  6
Continuous
 62
     7
370
    25
100
AcDbLine
 10
351.3035072643
 20
77.6754170122
 30
0.0
 11
352.3035072643
 21
77.6754170122
 31
0.0
  0
LINE
  5
E1
330
1F
100
AcDbEntity
  8
0
  6
Continuous
 62
     7
370
    25
100
AcDbLine
 10
301.6771054608
 20
77.6754170122
 30
0.0
 11
337.3223422137
 21
77.6754170122
 31
0.0
  0
LINE
  5
E2
330
1F
100
AcDbEntity
  8
0
  6
Continuous
 62
     7
370
    25
100
AcDbLine
 10
352.3035072643
 20
157.6754170122
 30
0.0
 11
301.6771054608
 21
157.6754170122
 31
0.0
  0
ARC
  5
E3
330
1F
100
AcDbEntity
  8
0
  6
Continuous
 62
     7
370
    25
100
AcDbCircle
 10
301.6771054608
 20
79.6754170122
 30
0.0
 40
2.000000000000003
100
AcDbArc
 50
201.0375110254
 51
270.0
  0
ARC
  5
E4
330
1F
100
AcDbEntity
  8
0
  6
Continuous
 62
     7
370
    25
100
AcDbCircle
 10
301.6771054608
 20
155.6754170122
 30
0.0
 40
2.000000000000013
100
AcDbArc
 50
90.0
 51
158.9624889746
  0
LINE
  5
E5
330
1F
100
AcDbEntity
  8
0
  6
Continuous
 62
     7
370
    25
100
AcDbLine
 10
299.8104142484
 20
156.3933751709
 30
0.0
 11
295.7966002802
 21
145.9574588536
 31
0.0
  0
LINE
  5
E6
330
1F
100
AcDbEntity
  8
0
  6
Continuous
 62
     7
370
    25
100
AcDbLine
 10
295.7966002802
 20
89.3933751709
 30
0.0
 11
299.8104142484
 21
78.9574588536
 31
0.0
  0
ARC
  5
E7
330
1F
100
AcDbEntity
  8
0
  6
Continuous
 62
     7
370
    25
100
AcDbCircle
 10
293.9299090678
 20
88.6754170122
 30
0.0
 40
2.0
100
AcDbArc
 50
21.0375110254
 51
90.0
  0
ARC
  5
E8
330
1F
100
AcDbEntity
  8
0
  6
Continuous
 62
     7
370
    25
100
AcDbCircle
 10
293.9299090678
 20
146.6754170122
 30
0.0
 40
2.0
100
AcDbArc
 50
270.0
 51
338.9624889746
  0
LINE
  5
E9
330
1F
100
AcDbEntity
  8
0
  6
Continuous
 62
     7
370
    25
100
AcDbLine
 10
265.3035072643
 20
90.6754170122
 30
0.0
 11
293.9299090678
 21
90.6754170122
 31
0.0
  0
LINE
  5
EA
330
1F
100
AcDbEntity
  8
0
  6
Continuous
 62
     7
370
    25
100
AcDbLine
 10
250.3035072643
 20
90.6754170122
 30
0.0
 11
251.3159321741
 21
90.6754170122
 31
0.0
  0
LINE
  5
EB
330
1F
100
AcDbEntity
  8
0
  6
Continuous
 62
     7
370
    25
100
AcDbLine
 10
293.9299090678
 20
144.6754170122
 30
0.0
 11
250.3035072643
 21
144.6754170122
 31
0.0
  0
LINE
  5
EC
330
1F
100
AcDbEntity
  8
0
  6
Continuous
 62
     7
370
    25
100
AcDbLine
 10
251.3035072643
 20
90.6786167457
 30
0.0
 11
251.3035072643
 21
72.6754170122
 31
0.0
  0
LINE
  5
ED
330
1F
100
AcDbEntity
  8
0
  6
Continuous
 62
     7
370
    25
100
AcDbLine
 10
265.3035072643
 20
72.6754170122
 30
0.0
 11
265.3035072643
 21
90.6754170122
 31
0.0
  0
LINE
  5
EE
330
1F
100
AcDbEntity
  8
0
  6
Continuous
 62
     7
370
    25
100
AcDbLine
 10
337.3035072643
 20
77.678699772
 30
0.0
 11
337.3035072643
 21
53.1754170122
 31
0.0
  0
LINE
  5
EF
330
1F
100
AcDbEntity
  8
0
  6
Continuous
 62
     7
370
    25
100
AcDbLine
 10
351.3035072643
 20
53.1754170122
 30
0.0
 11
351.3035072643
 21
77.6754170122
 31
0.0
  0
LINE
  5
F0
330
1F
100
AcDbEntity
  8
0
  6
Continuous
 62
     7
370
    25
100
AcDbLine
 10
352.3035072643
 20
117.6754170122
 30
0.0
 11
352.3035072643
 21
157.6754170122
 31
0.0
  0
LINE
  5
F1
330
1F
100
AcDbEntity
  8
0
  6
Continuous
 62
     7
370
    25
100
AcDbLine
 10
352.3035072643
 20
77.6754170122
 30
0.0
 11
352.3035072643
 21
117.6754170122
 31
0.0
  0
SPLINE
  5
F2
330
1F
100
AcDbEntity
  8
0
  6
Continuous
 62
     7
370
    25
100
AcDbSpline
210
0.0
220
0.0
230
1.0
 70
     8
 71
     3
 72
    26
 73
    22
 74
     0
 42
0.00000001
 43
0.00000001
 40
0.0
 40
0.0
 40
0.0
 40
0.0
 40
0.0523744685937201
 40
0.1062818262333995
 40
0.1586523694408185
 40
0.2125152249020938
 40
0.265374466437588
 40
0.3197450442193738
 40
0.3729395875070171
 40
0.4277066401178667
 40
0.4803558846474328
 40
0.534567502367916
 40
0.5866393909786175
 40
0.6402072654921827
 40
0.6925696019047068
 40
0.7464103371621768
 40
0.7994741393026451
 40
0.854072288161584
 40
0.9071646812192988
 40
0.9618359470163518
 40
1.0
 40
1.0
 40
1.0
 40
1.0
 10
351.303507264282
 20
77.67541701223782
 30
0.0
 10
351.2851236784365
 20
77.6786550438355
 30
0.0
 10
351.2478184583773
 20
77.68522587731303
 30
0.0
 10
350.9479428129903
 20
77.7367112036472
 30
0.0
 10
350.4742723127754
 20
77.81341903056813
 30
0.0
 10
349.8295995124024
 20
77.90903961271285
 30
0.0
 10
349.0232178719595
 20
78.01403116519101
 30
0.0
 10
348.0866332950857
 20
78.11557107858545
 30
0.0
 10
347.0302053034926
 20
78.20346453111328
 30
0.0
 10
345.905330988292
 20
78.26577713683231
 30
0.0
 10
344.7270108815521
 20
78.29630211512807
 30
0.0
 10
343.5555028582956
 20
78.29136092524092
 30
0.0
 10
342.3995740540226
 20
78.252020825434
 30
0.0
 10
341.3101161863633
 20
78.18376926923251
 30
0.0
 10
340.2933870062051
 20
78.09290387448982
 30
0.0
 10
339.3911285541205
 20
77.990407777997
 30
0.0
 10
338.6155500886456
 20
77.88605518363094
 30
0.0
 10
338.0018518805805
 20
77.79278716568275
 30
0.0
 10
337.5690044400361
 20
77.72150344781691
 30
0.0
 10
337.3302866740814
 20
77.68012142422592
 30
0.0
 10
337.3246566737096
 20
77.67911714692475
 30
0.0
 10
337.3223422137033
 20
77.6787042944389
 30
0.0
  0
LINE
  5
F3
330
1F
100
AcDbEntity
  8
0
  6
Continuous
 62
     7
370
    25
100
AcDbLine
 10
250.3035072643
 20
117.6754170122
 30
0.0
 11
250.3035072643
 21
144.6754170122
 31
0.0
  0
LINE
  5
F4
330
1F
100
AcDbEntity
  8
0
  6
Continuous
 62
     7
370
    25
100
AcDbLine
 10
250.3035072643
 20
90.6754170122
 30
0.0
 11
250.3035072643
 21
117.6754170122
 31
0.0
  0
SPLINE
  5
F5
330
1F
100
AcDbEntity
  8
0
  6
Continuous
 62
     7
370
    25
100
AcDbSpline
210
0.0
220
0.0
230
1.0
 70
     8
 71
     3
 72
    26
 73
    22
 74
     0
 42
0.00000001
 43
0.00000001
 40
0.0
 40
0.0
 40
0.0
 40
0.0
 40
0.0517257676803309
 40
0.1049815979218307
 40
0.1566991958770903
 40
0.2098622750678253
 40
0.2626047285304378
 40
0.3168270594686405
 40
0.3703615918748368
 40
0.4255130577943974
 40
0.4778808062446842
 40
0.5318502531492992
 40
0.5828959571302375
 40
0.6353942906184302
 40
0.6870243633353408
 40
0.7400651704468276
 40
0.7932525234058008
 40
0.8479672457151817
 40
0.9013089922917885
 40
0.9562828593274054
 40
1.0
 40
1.0
 40
1.0
 40
1.0
 10
265.3035072642819
 20
90.67541701223782
 30
0.0
 10
265.2854844074171
 20
90.68011821805861
 30
0.0
 10
265.2489055725802
 20
90.68965969267288
 30
0.0
 10
264.9551851307173
 20
90.7644497249426
 30
0.0
 10
264.4921868056691
 20
90.87601691140034
 30
0.0
 10
263.8610230185016
 20
91.01600638801143
 30
0.0
 10
263.0686264581087
 20
91.17131662652837
 30
0.0
 10
262.1404380899017
 20
91.3239509024961
 30
0.0
 10
261.0866183258966
 20
91.45812485492257
 30
0.0
 10
259.9609122591126
 20
91.55452194561676
 30
0.0
 10
258.7826144636015
 20
91.60306278579917
 30
0.0
 10
257.6193446452392
 20
91.59821510468124
 30
0.0
 10
256.476222623028
 20
91.54244232306914
 30
0.0
 10
255.4008962964171
 20
91.44441739692921
 30
0.0
 10
254.3930379678909
 20
91.31270239193589
 30
0.0
 10
253.4875714248805
 20
91.16200538993634
 30
0.0
 10
252.6989263093795
 20
91.00619873535213
 30
0.0
 10
252.0646300483791
 20
90.86437959636763
 30
0.0
 10
251.6072392254908
 20
90.75334813784504
 30
0.0
 10
251.3417659017339
 20
90.68538128899273
 30
0.0
 10
251.3238627364967
 20
90.68069988458062
 30
0.0
 10
251.3159321741147
 20
90.67862616358029
 30
0.0
  0
LINE
  5
F6
330
1F
100
AcDbEntity
  8
0
  6
Continuous
 62
     7
370
    25
100
AcDbLine
 10
251.3035072643
 20
72.6754170122
 30
0.0
 11
265.3035072643
 21
72.6754170122
 31
0.0
  0
LINE
  5
F7
330
1F
100
AcDbEntity
  8
0
  6
Continuous
 62
     7
370
    25
100
AcDbLine
 10
337.3035072643
 20
53.1754170122
 30
0.0
 11
351.3035072643
 21
53.1754170122
 31
0.0
  0
LINE
  5
F8
330
1F
100
AcDbEntity
  8
0
  6
Continuous
 62
     1
370
    25
100
AcDbLine
 10
301.6771054608
 20
117.6754170122
 30
0.0
 11
301.6771054608
 21
157.6754170122
 31
0.0
  0
LINE
  5
F9
330
1F
100
AcDbEntity
  8
0
  6
Continuous
 62
     1
370
    25
100
AcDbLine
 10
301.6771054608
 20
77.6754170122
 30
0.0
 11
301.6771054608
 21
117.6754170122
 31
0.0
  0
LINE
  5
FA
330
1F
100
AcDbEntity
  8
0
  6
Continuous
 62
     1
370
    25
100
AcDbLine
 10
299.8104142484
 20
117.6754170122
 30
0.0
 11
299.8104142484
 21
156.3933751709
 31
0.0
  0
LINE
  5
FB
330
1F
100
AcDbEntity
  8
0
  6
Continuous
 62
     1
370
    25
100
AcDbLine
 10
299.8104142484
 20
78.9574588536
 30
0.0
 11
299.8104142484
 21
117.6754170122
 31
0.0
  0
LINE
  5
FC
330
1F
100
AcDbEntity
  8
0
  6
Continuous
 62
     1
370
    25
100
AcDbLine
 10
295.7966002802
 20
117.6754170122
 30
0.0
 11
295.7966002802
 21
145.9574588536
 31
0.0
  0
LINE
  5
FD
330
1F
100
AcDbEntity
  8
0
  6
Continuous
 62
     1
370
    25
100
AcDbLine
 10
295.7966002802
 20
89.3933751709
 30
0.0
 11
295.7966002802
 21
117.6754170122
 31
0.0
  0
LINE
  5
FE
330
1F
100
AcDbEntity
  8
0
  6
Continuous
 62
     1
370
    25
100
AcDbLine
 10
293.9299090678
 20
117.6754170122
 30
0.0
 11
293.9299090678
 21
144.6754170122
 31
0.0
  0
LINE
  5
FF
330
1F
100
AcDbEntity
  8
0
  6
Continuous
 62
     1
370
    25
100
AcDbLine
 10
293.9299090678
 20
90.6754170122
 30
0.0
 11
293.9299090678
 21
117.6754170122
 31
0.0
  0
LINE
  5
100
330
1F
100
AcDbEntity
  8
0
  6
Continuous
 62
     7
370
    25
100
AcDbLine
 10
96.1701403815
 20
-23.5562639791
 30
0.0
 11
96.1701403815
 21
-74.1826657826
 31
0.0
  0
LINE
  5
101
330
1F
100
AcDbEntity
  8
0
  6
Continuous
 62
     7
370
    25
100
AcDbLine
 10
176.1701403815
 20
-74.1826657826
 30
0.0
 11
176.1701403815
 21
-23.5562639791
 31
0.0
  0
ARC
  5
102
330
1F
100
AcDbEntity
  8
0
  6
Continuous
 62
     7
370
    25
100
AcDbCircle
 10
98.1701403815
 20
-23.5562639791
 30
0.0
 40
2.000000000000014
100
AcDbArc
 50
111.0375110254
 51
180.0
  0
ARC
  5
103
330
1F
100
AcDbEntity
  8
0
  6
Continuous
 62
     7
370
    25
100
AcDbCircle
 10
174.1701403815
 20
-23.5562639791
 30
0.0
 40
2.0
100
AcDbArc
 50
0.0
 51
68.9624889746
  0
LINE
  5
104
330
1F
100
AcDbEntity
  8
0
  6
Continuous
 62
     7
370
    25
100
AcDbLine
 10
174.8880985401
 20
-21.6895727667
 30
0.0
 11
164.4521822229
 21
-17.6757587986
 31
0.0
  0
LINE
  5
105
330
1F
100
AcDbEntity
  8
0
  6
Continuous
 62
     7
370
    25
100
AcDbLine
 10
107.8880985401
 20
-17.6757587986
 30
0.0
 11
97.4521822229
 21
-21.6895727667
 31
0.0
  0
ARC
  5
106
330
1F
100
AcDbEntity
  8
0
  6
Continuous
 62
     7
370
    25
100
AcDbCircle
 10
107.1701403815
 20
-15.8090675861
 30
0.0
 40
2.000000000000004
100
AcDbArc
 50
291.0375110254
 51
0.0
  0
ARC
  5
107
330
1F
100
AcDbEntity
  8
0
  6
Continuous
 62
     7
370
    25
100
AcDbCircle
 10
165.1701403815
 20
-15.8090675861
 30
0.0
 40
2.000000000000015
100
AcDbArc
 50
180.0
 51
248.9624889746
  0
LINE
  5
108
330
1F
100
AcDbEntity
  8
0
  6
Continuous
 62
     7
370
    25
100
AcDbLine
 10
109.1701403815
 20
27.8173342174
 30
0.0
 11
109.1701403815
 21
-15.8090675861
 31
0.0
  0
LINE
  5
109
330
1F
100
AcDbEntity
  8
0
  6
Continuous
 62
     7
370
    25
100
AcDbLine
 10
163.1701403815
 20
-15.8090675861
 30
0.0
 11
163.1701403815
 21
27.8173342174
 31
0.0
  0
LINE
  5
10A
330
1F
100
AcDbEntity
  8
0
  6
Continuous
 62
     7
370
    25
100
AcDbLine
 10
96.1701403815
 20
-74.1826657826
 30
0.0
 11
176.1701403815
 21
-74.1826657826
 31
0.0
  0
LINE
  5
10B
330
1F
100
AcDbEntity
  8
0
  6
Continuous
 62
     7
370
    25
100
AcDbLine
 10
109.1701403815
 20
27.8173342174
 30
0.0
 11
163.1701403815
 21
27.8173342174
 31
0.0
  0
LINE
  5
10C
330
1F
100
AcDbEntity
  8
0
  6
Continuous
 62
     1
370
    25
100
AcDbLine
 10
96.1701403815
 20
-23.5562639791
 30
0.0
 11
176.1701403815
 21
-23.5562639791
 31
0.0
  0
LINE
  5
10D
330
1F
100
AcDbEntity
  8
0
  6
Continuous
 62
     1
370
    25
100
AcDbLine
 10
97.4521822229
 20
-21.6895727667
 30
0.0
 11
174.8880985401
 21
-21.6895727667
 31
0.0
  0
LINE
  5
10E
330
1F
100
AcDbEntity
  8
0
  6
Continuous
 62
     1
370
    25
100
AcDbLine
 10
107.8880985401
 20
-17.6757587986
 30
0.0
 11
164.4521822229
 21
-17.6757587986
 31
0.0
  0
LINE
  5
10F
330
1F
100
AcDbEntity
  8
0
  6
Continuous
 62
     1
370
    25
100
AcDbLine
 10
109.1701403815
 20
-15.8090675861
 30
0.0
 11
163.1701403815
 21
-15.8090675861
 31
0.0
  0
LINE
  5
110
330
1F
100
AcDbEntity
  8
0
  6
Continuous
 62
     7
370
    25
100
AcDbLine
 10
314.9423144867
 20
21.2243253639
 30
0.0
 11
279.1440424643
 21
41.8902279163
 31
0.0
  0
LINE
  5
111
330
1F
100
AcDbEntity
  8
0
  6
Continuous
 62
     7
370
    25
100
AcDbLine
 10
239.1472931589
 20
-27.3936810741
 30
0.0
 11
257.8025220611
 21
-38.1631154855
 31
0.0
  0
LINE
  5
112
330
1F
100
AcDbEntity
  8
0
  6
Continuous
 62
     7
370
    25
100
AcDbLine
 10
271.8025220611
 20
-46.2451434547
 30
0.0
 11
274.9455651812
 21
-48.0595836265
 31
0.0
  0
LINE
  5
113
330
1F
100
AcDbEntity
  8
0
  6
Continuous
 62
     7
370
    25
100
AcDbLine
 10
257.8025220611
 20
-28.4277967253
 30
0.0
 11
257.8025220611
 21
-48.6842413928
 31
0.0
  0
LINE
  5
114
330
1F
100
AcDbEntity
  8
0
  6
Continuous
 62
     7
370
    25
100
AcDbLine
 10
271.8025220611
 20
-48.6842413928
 30
0.0
 11
271.8025220611
 21
-28.427980299
 31
0.0
  0
SPLINE
  5
115
330
1F
100
AcDbEntity
  8
0
  6
Continuous
 62
     7
370
    25
100
AcDbSpline
210
0.0
220
0.0
230
1.0
 70
     8
 71
     3
 72
    69
 73
    65
 74
     0
 42
0.00000001
 43
0.00000001
 40
0.0
 40
0.0
 40
0.0
 40
0.0
 40
0.0132791422791824
 40
0.0288853909548622
 40
0.0445096176899175
 40
0.0601790688804496
 40
0.0759165632644547
 40
0.0917387010904333
 40
0.1076548651647042
 40
0.1236671288093126
 40
0.1397710415864014
 40
0.1559570987141946
 40
0.1722125720955461
 40
0.1885233439028305
 40
0.2048754501096065
 40
0.2212561736869376
 40
0.2376546652266237
 40
0.25406216634065
 40
0.2704710978161223
 40
0.2868761374343708
 40
0.3032743533346018
 40
0.319663945779753
 40
0.3360439866726839
 40
0.3524142017334911
 40
0.3687747962504037
 40
0.3851263201398167
 40
0.4014695661369623
 40
0.4178054947085169
 40
0.4341351798627409
 40
0.4504597709202612
 40
0.4667804662262487
 40
0.4830984956031301
 40
0.4994151090129483
 40
0.515731569410417
 40
0.5320489288475612
 40
0.5483682595464018
 40
0.5646908405499402
 40
0.5810179486492484
 40
0.5973508510766168
 40
0.6136907939432908
 40
0.6300389842921594
 40
0.6463965631335044
 40
0.6627645661160814
 40
0.6791438676025237
 40
0.6955351029079593
 40
0.7119385624414801
 40
0.7283540507208449
 40
0.7447807032104903
 40
0.7612167555325129
 40
0.777659264203246
 40
0.7941027326325829
 40
0.8105394193237803
 40
0.8269601898814245
 40
0.843353611280319
 40
0.859706137938688
 40
0.8760027290051525
 40
0.8922279982719684
 40
0.9083678918367977
 40
0.9244117215701161
 40
0.9403542088788117
 40
0.9561970975407943
 40
0.971949940746411
 40
0.9876298485021674
 40
1.0
 40
1.0
 40
1.0
 40
1.0
 10
275.0376963799906
 20
-48.10482917214757
 30
0.0
 10
275.3424485237429
 20
-48.27273361599966
 30
0.0
 10
276.0053591720018
 20
-48.63796695726218
 30
0.0
 10
277.0852395100425
 20
-49.09112438456823
 30
0.0
 10
278.2607853284606
 20
-49.48512868599936
 30
0.0
 10
279.4794401886901
 20
-49.78399717823223
 30
0.0
 10
280.7371085539434
 20
-49.99005345959787
 30
0.0
 10
282.0317604909115
 20
-50.10167245095329
 30
0.0
 10
283.3604949461224
 20
-50.11833211086886
 30
0.0
 10
284.7202240695544
 20
-50.03938710309176
 30
0.0
 10
286.1074509592827
 20
-49.86454715257549
 30
0.0
 10
287.5183648143178
 20
-49.593875205143
 30
0.0
 10
288.948908428494
 20
-49.22787133701692
 30
0.0
 10
290.394884757391
 20
-48.76747955714102
 30
0.0
 10
291.8520554240638
 20
-48.21406634648242
 30
0.0
 10
293.3162210725511
 20
-47.56937272047912
 30
0.0
 10
294.7832744452189
 20
-46.83545755283872
 30
0.0
 10
296.249202037984
 20
-46.01465721145882
 30
0.0
 10
297.7101045392417
 20
-45.10953998455676
 30
0.0
 10
299.1622176196513
 20
-44.12285779070844
 30
0.0
 10
300.6019222094909
 20
-43.05749938287623
 30
0.0
 10
302.0257143175819
 20
-41.9164779873797
 30
0.0
 10
303.4301652494365
 20
-40.70294192593946
 30
0.0
 10
304.8119139222174
 20
-39.42017040643392
 30
0.0
 10
306.1676627066055
 20
-38.07157061153826
 30
0.0
 10
307.4941764181199
 20
-36.66067498212021
 30
0.0
 10
308.7882838915181
 20
-35.19113801041004
 30
0.0
 10
310.0468815377022
 20
-33.66673216288064
 30
0.0
 10
311.2669383282317
 20
-32.09134276008113
 30
0.0
 10
312.4455017295406
 20
-30.46896177433171
 30
0.0
 10
313.5797041917428
 20
-28.80368058799606
 30
0.0
 10
314.6667698729797
 20
-27.09968180213037
 30
0.0
 10
315.7040213433849
 20
-25.361230213385
 30
0.0
 10
316.6888816551985
 20
-23.59267100851326
 30
0.0
 10
317.6188820733692
 20
-21.79841955942018
 30
0.0
 10
318.4916727782124
 20
-19.98294329368958
 30
0.0
 10
319.3050312948851
 20
-18.15074186783475
 30
0.0
 10
320.0568651293178
 20
-16.30633599860092
 30
0.0
 10
320.7452112906702
 20
-14.4542639263482
 30
0.0
 10
321.3682388557173
 20
-12.5990706925639
 30
0.0
 10
321.9242506688842
 20
-10.74529798281213
 30
0.0
 10
322.4116841935375
 20
-8.897474854215298
 30
0.0
 10
322.8291115955009
 20
-7.060109725277513
 30
0.0
 10
323.1752392350441
 20
-5.237684074864486
 30
0.0
 10
323.4489068839926
 20
-3.434648364072576
 30
0.0
 10
323.6490871849375
 20
-1.655420742381564
 30
0.0
 10
323.7748861444765
 20
0.0956109037025567
 30
0.0
 10
323.8255458089851
 20
1.814083111033857
 30
0.0
 10
323.8004506982731
 20
3.495647049616753
 30
0.0
 10
323.6991421766084
 20
5.135920148527526
 30
0.0
 10
323.5213492635385
 20
6.730462708411412
 30
0.0
 10
323.2670281688185
 20
8.274795665859882
 30
0.0
 10
322.9364016905567
 20
9.76442897671512
 30
0.0
 10
322.5300050327549
 20
11.19488069272995
 30
0.0
 10
322.0487465322492
 20
12.56168797072218
 30
0.0
 10
321.4939579978709
 20
13.86047043316746
 30
0.0
 10
320.8674311906944
 20
15.08703326878469
 30
0.0
 10
320.1713970857026
 20
16.23745229100644
 30
0.0
 10
319.4085420675102
 20
17.30830271037547
 30
0.0
 10
318.5816716060139
 20
18.29633753372561
 30
0.0
 10
317.6944699562053
 20
19.20006491796301
 30
0.0
 10
316.748064893935
 20
20.0140632176938
 30
0.0
 10
315.8220177346757
 20
20.69892042965495
 30
0.0
 10
315.1878793637977
 20
21.07035456434329
 30
0.0
 10
314.90822263839
 20
21.2341580157379
 30
0.0
  0
LINE
  5
116
330
1F
100
AcDbEntity
  8
0
  6
Continuous
 62
     7
370
    25
100
AcDbLine
 10
344.7694623832
 20
-11.0052209976
 30
0.0
 11
323.7922224178
 21
1.1046818679
 31
0.0
  0
LINE
  5
117
330
1F
100
AcDbEntity
  8
0
  6
Continuous
 62
     7
370
    25
100
AcDbLine
 10
296.7947147451
 20
-45.662128795
 30
0.0
 11
317.7716566021
 21
-57.7718595661
 31
0.0
  0
LINE
  5
118
330
1F
100
AcDbEntity
  8
0
  6
Continuous
 62
     7
370
    25
100
AcDbLine
 10
318.6137052432
 20
-52.7955640305
 30
0.0
 11
318.6137052432
 21
-67.8672443694
 31
0.0
  0
LINE
  5
119
330
1F
100
AcDbEntity
  8
0
  6
Continuous
 62
     7
370
    25
100
AcDbLine
 10
332.6137052432
 20
-67.8672443694
 30
0.0
 11
332.6137052432
 21
-52.7956397612
 31
0.0
  0
LINE
  5
11A
330
1F
100
AcDbEntity
  8
0
  6
Continuous
 62
     7
370
    25
100
AcDbLine
 10
275.0263771335
 20
-48.105859916
 30
0.0
 11
274.9455651812
 21
-48.0595836265
 31
0.0
  0
LWPOLYLINE
  5
11B
330
1F
100
AcDbEntity
  8
0
  6
Continuous
 62
     7
370
    25
100
AcDbPolyline
 90
      118
 70
   128
 43
0.0
 10
230.8613965642
 20
-9.0798888154
 10
230.9021720022
 20
-7.3031833042
 10
231.02438075
 20
-5.4845221763
 10
231.2276704483
 20
-3.6291491025
 10
231.5114549601
 20
-1.7424136037
 10
231.8749160613
 20
0.1702443731
 10
232.3170057995
 20
2.1033101401
 10
232.8364495154
 20
4.051210168
 10
233.4317495183
 20
6.008328157
 10
234.1011894043
 20
7.9690212291
 10
234.8428390049
 20
9.9276361987
 10
235.6545599522
 20
11.8785258718
 10
236.5340118447
 20
13.8160653285
 10
237.4786589948
 20
15.7346681409
 10
238.4857777404
 20
17.6288024804
 10
239.5524642972
 20
19.4930070674
 10
240.675643132
 20
21.3219069175
 10
241.8520758292
 20
23.1102288389
 10
243.078370429
 20
24.8528166367
 10
244.3509912064
 20
26.5446459791
 10
245.6662688665
 20
28.180838884
 10
247.0204111231
 20
29.756677784
 10
248.4095136337
 20
31.2676191273
 10
249.829571256
 20
32.7093064791
 10
251.2764895964
 20
34.0775830814
 10
252.7460968147
 20
35.3685038386
 10
254.2341556529
 20
36.5783466919
 10
255.736375652
 20
37.7036233513
 10
257.248425523
 20
38.7410893529
 10
258.7659456347
 20
39.6877534135
 10
260.2845605837
 20
40.5408860556
 10
261.79989181
 20
41.298027477
 10
263.3075702215
 20
41.9569946429
 10
264.8032487908
 20
42.5158875804
 10
266.2826150897
 20
42.9730948565
 10
267.741403722
 20
43.3272982243
 10
269.1754086224
 20
43.5774764237
 10
270.5804951837
 20
43.7229081263
 10
271.9526121775
 20
43.7631740147
 10
273.2878034353
 20
43.6981579921
 10
274.5822192552
 20
43.5280475164
 10
275.8321275011
 20
43.2533330602
 10
277.0339243642
 20
42.8748066964
 10
278.1841447528
 20
42.3935598144
 10
279.2794722838
 20
41.8109799736
 10
280.3167488445
 20
41.1287469026
 10
281.292983698
 20
40.3488276557
 10
282.2053621065
 20
39.4734709423
 10
283.0512534468
 20
38.5052006422
 10
283.8282187953
 20
37.4468085293
 10
284.5340179596
 20
36.3013462222
 10
285.1666159382
 20
35.0721163853
 10
285.7241887872
 20
33.7626632062
 10
286.2051288798
 20
32.3767621775
 10
286.6080495412
 20
30.9184092108
 10
286.9317890469
 20
29.391809115
 10
287.175413972
 20
27.8013634734
 10
287.3382218828
 20
26.1516579527
 10
287.4197433619
 20
24.4474490807
 10
287.4197433619
 20
22.693650533
 10
287.3382218828
 20
20.8953189647
 10
287.175413972
 20
19.0576394312
 10
286.9317890469
 20
17.1859104385
 10
286.6080495412
 20
15.2855286656
 10
286.2051288798
 20
13.3619734053
 10
285.7241887872
 20
11.4207907652
 10
285.1666159382
 20
9.4675776775
 10
284.5340179596
 20
7.5079657611
 10
283.8282187953
 20
5.5476050844
 10
283.0512534468
 20
3.5921478748
 10
282.2053621065
 20
1.6472322217
 10
281.292983698
 20
-0.2815341798
 10
280.3167488445
 20
-2.1885901966
 10
279.2794722838
 20
-4.0684372927
 10
278.1841447528
 20
-5.9156553823
 10
277.0339243642
 20
-7.7249184573
 10
275.8321275011
 20
-9.4910099441
 10
274.5822192552
 20
-11.2088377435
 10
273.2878034353
 20
-12.8734489135
 10
271.9526121775
 20
-14.480043949
 10
270.5804951837
 20
-16.0239906207
 10
269.1754086224
 20
-17.5008373306
 10
267.741403722
 20
-18.9063259474
 10
266.2826150897
 20
-20.2364040835
 10
264.8032487908
 20
-21.4872367793
 10
263.3075702215
 20
-22.6552175605
 10
261.79989181
 20
-23.736978836
 10
260.2845605837
 20
-24.729401608
 10
258.7659456347
 20
-25.6296244648
 10
257.248425523
 20
-26.4350518308
 10
255.736375652
 20
-27.1433614504
 10
254.2341556529
 20
-27.7525110838
 10
252.7460968147
 20
-28.2607443946
 10
251.2764895964
 20
-28.6665960148
 10
249.829571256
 20
-28.9688957691
 10
248.4095136337
 20
-29.1667720491
 10
247.0204111231
 20
-29.2596543261
 10
245.6662688665
 20
-29.2472747965
 10
244.3509912064
 20
-29.1296691538
 10
243.078370429
 20
-28.9071764854
 10
241.8520758292
 20
-28.5804382953
 10
240.675643132
 20
-28.1503966542
 10
239.5524642972
 20
-27.6182914837
 10
238.4857777404
 20
-26.9856569805
 10
237.4786589948
 20
-26.2543171938
 10
236.5340118447
 20
-25.4263807655
 10
235.6545599522
 20
-24.5042348506
 10
234.8428390049
 20
-23.4905382346
 10
234.1011894043
 20
-22.3882136671
 10
233.4317495183
 20
-21.2004394353
 10
232.8364495154
 20
-19.9306401998
 10
232.3170057995
 20
-18.5824771205
 10
231.8749160613
 20
-17.1598373005
 10
231.5114549601
 20
-15.6668225787
 10
231.2276704483
 20
-14.1077377031
 10
231.02438075
 20
-12.4870779189
 10
230.9021720022
 20
-10.8095160079
 10
230.8613965642
 20
-9.0798888154
  0
SPLINE
  5
11C
330
1F
100
AcDbEntity
  8
0
  6
Continuous
 62
     7
370
    25
100
AcDbSpline
210
0.0
220
0.0
230
1.0
 70
     8
 71
     3
 72
    12
 73
     8
 74
     0
 42
0.00000001
 43
0.00000001
 40
0.0
 40
0.0
 40
0.0
 40
0.0
 40
0.2125441142582076
 40
0.4250971968915725
 40
0.6375435413836291
 40
0.8500029599629713
 40
1.0
 40
1.0
 40
1.0
 40
1.0
 10
259.8527745928043
 20
-25.82156311024312
 30
0.0
 10
259.5906000363503
 20
-25.98590162140814
 30
0.0
 10
259.0662398608928
 20
-26.31458557806062
 30
0.0
 10
258.4730805076168
 20
-26.85974199841196
 30
0.0
 10
258.0572935274967
 20
-27.427528484223
 30
0.0
 10
257.826618825766
 20
-27.95442643721941
 30
0.0
 10
257.8245993986467
 20
-28.28952520320786
 30
0.0
 10
257.8237636897408
 20
-28.4282006822163
 30
0.0
  0
SPLINE
  5
11D
330
1F
100
AcDbEntity
  8
0
  6
Continuous
 62
     7
370
    25
100
AcDbSpline
210
0.0
220
0.0
230
1.0
 70
     8
 71
     3
 72
    21
 73
    17
 74
     0
 42
0.00000001
 43
0.00000001
 40
0.0
 40
0.0
 40
0.0
 40
0.0
 40
0.0406844583910515
 40
0.1126313426160801
 40
0.1845737332676889
 40
0.2561939594655169
 40
0.3278106563212723
 40
0.3984369830879474
 40
0.4690662091287463
 40
0.5395942130868151
 40
0.6101266810524224
 40
0.6815893142909356
 40
0.7530511888019488
 40
0.8250386879681588
 40
0.8970210940966042
 40
1.0
 40
1.0
 40
1.0
 40
1.0
 10
271.7781964426924
 20
-28.42814134100061
 30
0.0
 10
271.781538419341
 20
-28.28315324082696
 30
0.0
 10
271.7907903875817
 20
-27.88176644518743
 30
0.0
 10
271.5837048349094
 20
-27.23543776958602
 30
0.0
 10
271.1859518970967
 20
-26.52349995635954
 30
0.0
 10
270.593099255195
 20
-25.88463219846952
 30
0.0
 10
269.8449531121018
 20
-25.33914435602481
 30
0.0
 10
268.9552037683892
 20
-24.90732534795994
 30
0.0
 10
267.9582767235939
 20
-24.59288894507916
 30
0.0
 10
266.8742690693805
 20
-24.40465551300769
 30
0.0
 10
265.731261630447
 20
-24.33600684046419
 30
0.0
 10
264.5576492724638
 20
-24.38905732468647
 30
0.0
 10
263.3817890582424
 20
-24.55228916169376
 30
0.0
 10
262.2459886785743
 20
-24.82070239243259
 30
0.0
 10
261.0116549489443
 20
-25.22332649914986
 30
0.0
 10
260.2821483338008
 20
-25.5999120223243
 30
0.0
 10
259.8527745928043
 20
-25.82156311024312
 30
0.0
  0
LWPOLYLINE
  5
11E
330
1F
100
AcDbEntity
  8
0
  6
Continuous
 62
     7
370
    25
100
AcDbPolyline
 90
      105
 70
   128
 43
0.0
 10
236.8718042042
 20
-5.6101543401
 10
236.9124416606
 20
-4.0336973558
 10
237.0342057481
 20
-2.4160736835
 10
237.2366521628
 20
-0.7631858568
 10
237.5190421996
 20
0.918934916
 10
237.8803454479
 20
2.6241507587
 10
238.3192435514
 20
4.3462395234
 10
238.8341350184
 20
6.0789174952
 10
239.4231410659
 20
7.8158623199
 10
240.0841124746
 20
9.5507360743
 10
240.8146374316
 20
11.2772083921
 10
241.6120503306
 20
12.9889795632
 10
242.4734414982
 20
14.6798035201
 10
243.3956678116
 20
16.3435106296
 10
244.375364167
 20
17.9740302048
 10
245.4089557586
 20
19.5654126568
 10
246.4926711228
 20
21.1118512034
 10
247.6225558997
 20
22.6077030581
 10
248.7944872623
 20
24.0475100198
 10
250.0041889602
 20
25.426018389
 10
251.2472469231
 20
26.738198138
 10
252.5191253673
 20
27.9792612655
 10
253.8151833462
 20
29.1446792664
 10
255.1306916848
 20
30.2301996571
 10
256.4608502359
 20
31.2318614912
 10
257.8008053952
 20
32.1460098133
 10
259.1456678116
 20
32.9693089955
 10
260.490530228
 20
33.6987549082
 10
261.8304853873
 20
34.3316858824
 10
263.1606439384
 20
34.8657924217
 10
264.4761522771
 20
35.2991256292
 10
265.772210256
 20
35.6301043189
 10
267.0440887001
 20
35.8575207857
 10
268.287146663
 20
35.9805452113
 10
269.4968483609
 20
35.9987286932
 10
270.6687797235
 20
35.9120048816
 10
271.7986645005
 20
35.7206902224
 10
272.8823798646
 20
35.4254828021
 10
273.9159714562
 20
35.0274598004
 10
274.8956678116
 20
34.5280735602
 10
275.817894125
 20
33.9291462877
 10
276.6792852927
 20
33.2328634036
 10
277.4766981916
 20
32.4417655686
 10
278.2072231486
 20
31.5587394128
 10
278.8681945573
 20
30.5870070031
 10
279.4572006048
 20
29.5301140855
 10
279.9720920719
 20
28.3919171477
 10
280.4109901753
 20
27.1765693469
 10
280.7722934237
 20
25.8885053555
 10
281.0546834605
 20
24.5324251791
 10
281.2571298751
 20
23.1132770075
 10
281.3788939626
 20
21.6362391582
 10
281.419531419
 20
20.1067011823
 10
281.3788939626
 20
18.530244198
 10
281.2571298751
 20
16.9126205257
 10
281.0546834605
 20
15.259732699
 10
280.7722934237
 20
13.5776119262
 10
280.4109901753
 20
11.8723960835
 10
279.9720920719
 20
10.1503073187
 10
279.4572006048
 20
8.417629347
 10
278.8681945573
 20
6.6806845223
 10
278.2072231486
 20
4.9458107679
 10
277.4766981916
 20
3.2193384501
 10
276.6792852927
 20
1.507567279
 10
275.817894125
 20
-0.1832566779
 10
274.8956678116
 20
-1.8469637874
 10
273.9159714562
 20
-3.4774833626
 10
272.8823798646
 20
-5.0688658146
 10
271.7986645005
 20
-6.6153043612
 10
270.6687797235
 20
-8.1111562159
 10
269.4968483609
 20
-9.5509631776
 10
268.287146663
 20
-10.9294715468
 10
267.0440887001
 20
-12.2416512958
 10
265.772210256
 20
-13.4827144233
 10
264.4761522771
 20
-14.6481324242
 10
263.1606439384
 20
-15.7336528149
 10
261.8304853873
 20
-16.735314649
 10
260.490530228
 20
-17.6494629711
 10
259.1456678116
 20
-18.4727621533
 10
257.8008053952
 20
-19.202208066
 10
256.4608502359
 20
-19.8351390402
 10
255.1306916848
 20
-20.3692455795
 10
253.8151833462
 20
-20.802578787
 10
252.5191253673
 20
-21.1335574767
 10
251.2472469231
 20
-21.3609739435
 10
250.0041889602
 20
-21.4839983691
 10
248.7944872623
 20
-21.502181851
 10
247.6225558997
 20
-21.4154580394
 10
246.4926711228
 20
-21.2241433802
 10
245.4089557586
 20
-20.9289359599
 10
244.375364167
 20
-20.5309129582
 10
243.3956678116
 20
-20.031526718
 10
242.4734414982
 20
-19.4325994456
 10
241.6120503306
 20
-18.7363165614
 10
240.8146374316
 20
-17.9452187264
 10
240.0841124746
 20
-17.0621925706
 10
239.4231410659
 20
-16.0904601609
 10
238.8341350184
 20
-15.0335672433
 10
238.3192435514
 20
-13.8953703055
 10
237.8803454479
 20
-12.6800225047
 10
237.5190421996
 20
-11.3919585133
 10
237.2366521628
 20
-10.0358783369
 10
237.0342057481
 20
-8.6167301653
 10
236.9124416606
 20
-7.139692316
 10
236.8718042042
 20
-5.6101543401
  0
LWPOLYLINE
  5
11F
330
1F
100
AcDbEntity
  8
0
  6
Continuous
 62
     7
370
    25
100
AcDbPolyline
 90
       50
 70
   128
 43
0.0
 10
259.8527745928
 20
-45.8268130014
 10
260.5263716084
 20
-45.4848726166
 10
261.2701828962
 20
-45.1954657787
 10
262.0719950954
 20
-44.9633445398
 10
262.918642472
 20
-44.7923203245
 10
263.7962230993
 20
-44.6852013455
 10
264.6903271277
 20
-44.6437464934
 10
265.5862733938
 20
-44.668636456
 10
266.4693504848
 20
-44.7594625406
 10
267.325058299
 20
-44.9147333854
 10
268.139346138
 20
-45.1318994475
 10
268.8988434179
 20
-45.4073948661
 10
269.5910792144
 20
-45.7366960141
 10
270.2046870348
 20
-46.1143957758
 10
270.7295914557
 20
-46.5342923314
 10
271.157173561
 20
-46.9894909911
 10
271.4804124643
 20
-47.4725174057
 10
271.6940005919
 20
-47.9754402945
 10
271.7944308325
 20
-48.4900016778
 10
271.7800541244
 20
-49.0077524719
 10
271.6511065327
 20
-49.520191223
 10
271.4097053733
 20
-50.018903701
 10
271.0598144466
 20
-50.4957010608
 10
270.6071789519
 20
-50.9427543029
 10
270.0592311515
 20
-51.3527228255
 10
269.4249683332
 20
-51.7188749567
 10
268.714805075
 20
-52.0351984887
 10
267.9404022378
 20
-52.2964993979
 10
267.1144754948
 20
-52.4984871304
 10
266.2505865404
 20
-52.6378450534
 10
265.3629204072
 20
-52.7122849136
 10
264.4660525488
 20
-52.7205844106
 10
263.5747095104
 20
-52.6626072667
 10
262.7035271201
 20
-52.5393054653
 10
261.8668101687
 20
-52.3527036183
 10
261.0782975255
 20
-52.105865723
 10
260.3509365462
 20
-51.8028448508
 10
259.6966704779
 20
-51.448616596
 10
259.1262423515
 20
-51.0489973769
 10
258.649018581
 20
-50.6105489298
 10
258.2728351675
 20
-50.1404705663
 10
258.0038690323
 20
-49.6464809599
 10
257.8465365919
 20
-49.1366914065
 10
257.8034212405
 20
-48.6194726364
 10
257.8752309311
 20
-48.1033173675
 10
258.0607865506
 20
-47.596700855
 10
258.3570412808
 20
-47.107941728
 10
258.7591306271
 20
-46.645065398
 10
259.2604522938
 20
-46.2156722814
 10
259.8527745928
 20
-45.8268130014
  0
LWPOLYLINE
  5
120
330
1F
100
AcDbEntity
  8
0
  6
Continuous
 62
     7
370
    25
100
AcDbPolyline
 90
       42
 70
   128
 43
0.0
 10
261.2669881552
 20
-46.6432211133
 10
261.8481198343
 20
-46.3555807212
 10
262.4985001977
 20
-46.1225221617
 10
263.2028848807
 20
-45.9495081297
 10
263.9447637034
 20
-45.8405939275
 10
264.706747655
 20
-45.7983324118
 10
265.4709764775
 20
-45.8237141566
 10
266.2195372951
 20
-45.9161442353
 10
266.9348844766
 20
-46.0734561653
 10
267.6002508904
 20
-46.2919626882
 10
268.2000409116
 20
-46.5665421964
 10
268.7201959706
 20
-46.8907587788
 10
269.1485240737
 20
-47.2570130737
 10
269.474985573
 20
-47.6567203906
 10
269.6919284879
 20
-48.080511929
 10
269.7942678601
 20
-48.5184543743
 10
269.7796049417
 20
-48.9602827268
 10
269.6482834189
 20
-49.3956409044
 10
269.4033813569
 20
-49.8143244804
 10
269.0506390526
 20
-50.2065198666
 10
268.5983244865
 20
-50.5630343357
 10
268.0570395288
 20
-50.8755114905
 10
267.43947144
 20
-51.1366271315
 10
266.7600954927
 20
-51.3402609293
 10
266.0348356834
 20
-51.4816398804
 10
265.2806914872
 20
-51.5574501818
 10
264.5153394049
 20
-51.5659149045
 10
263.7567186407
 20
-51.5068356424
 10
263.0226106223
 20
-51.3815971634
 10
262.3302222195
 20
-51.1931349514
 10
261.6957824295
 20
-50.9458664007
 10
261.1341619833
 20
-50.6455872768
 10
260.6585247882
 20
-50.2993358677
 10
260.2800193769
 20
-49.915228013
 10
260.0075175954
 20
-49.5022668752
 10
259.8474066545
 20
-49.0701319135
 10
259.803439419
 20
-48.628952005
 10
259.8766464435
 20
-48.189068033
 10
260.0653118176
 20
-47.7607905048
 10
260.3650133848
 20
-47.3541578827
 10
260.7687263942
 20
-46.9787012907
 10
261.2669881552
 20
-46.6432211133
  0
LWPOLYLINE
  5
121
330
1F
100
AcDbEntity
  8
0
  6
Continuous
 62
     7
370
    25
100
AcDbPolyline
 90
       37
 70
   128
 43
0.0
 10
344.7694623832
 20
-11.0052209976
 10
344.7705594926
 20
-11.0058544483
 10
345.624597201
 20
-11.5657959803
 10
346.4171687162
 20
-12.2234680072
 10
347.1448801253
 20
-12.9760542764
 10
347.8046152564
 20
-13.820332098
 10
348.3935490224
 20
-14.7526861448
 10
348.9091595185
 20
-15.7691239335
 10
349.3492388213
 20
-16.8652929215
 10
349.7119024437
 20
-18.0364991449
 10
349.9955974045
 20
-19.2777273189
 10
350.1991088782
 20
-20.5836623138
 10
350.3215653975
 20
-21.9487119156
 10
350.3624425847
 20
-23.3670307723
 10
350.3215653975
 20
-24.8325454247
 10
350.1991088782
 20
-26.3389803141
 10
349.9955974045
 20
-27.8798846551
 10
349.7119024437
 20
-29.4486600588
 10
349.3492388213
 20
-31.0385887879
 10
348.9091595185
 20
-32.6428625236
 10
348.3935490224
 20
-34.2546115195
 10
347.8046152564
 20
-35.8669340189
 10
347.1448801253
 20
-37.4729258094
 10
346.4171687162
 20
-39.0657097875
 10
345.624597201
 20
-40.6384654078
 10
344.7705594926
 20
-42.1844578891
 10
343.8587127118
 20
-43.6970670544
 10
342.8929615262
 20
-45.169815679
 10
341.8774414309
 20
-46.5963972272
 10
340.8165010387
 20
-47.9707028577
 10
339.7146834592
 20
-49.2868475829
 10
338.5767068446
 20
-50.539195469
 10
337.4074441854
 20
-51.7223837702
 10
336.2119024437
 20
-52.8313458923
 10
334.995201113
 20
-53.8613330895
 10
333.762550295
 20
-54.8079347983
 10
332.6137052432
 20
-55.6051347427
  0
LINE
  5
122
330
1F
100
AcDbEntity
  8
0
  6
Continuous
 62
     7
370
    25
100
AcDbLine
 10
318.6137052432
 20
-58.2007888365
 30
0.0
 11
317.7716566021
 21
-57.7718595661
 31
0.0
  0
SPLINE
  5
123
330
1F
100
AcDbEntity
  8
0
  6
Continuous
 62
     7
370
    25
100
AcDbSpline
210
0.0
220
0.0
230
1.0
 70
     8
 71
     3
 72
    12
 73
     8
 74
     0
 42
0.00000001
 43
0.00000001
 40
0.0
 40
0.0
 40
0.0
 40
0.0
 40
0.2099443499331606
 40
0.4199073672061534
 40
0.6296477457077595
 40
0.8394157162948147
 40
1.0
 40
1.0
 40
1.0
 40
1.0
 10
320.6639577748475
 20
-50.31208136410481
 30
0.0
 10
320.4042449252187
 20
-50.47342035250517
 30
0.0
 10
319.8847961334223
 20
-50.79611267486808
 30
0.0
 10
319.2957983947723
 20
-51.31489790589126
 30
0.0
 10
318.8798852910777
 20
-51.84500970641853
 30
0.0
 10
318.6425858220831
 20
-52.34096833198424
 30
0.0
 10
318.6355428464469
 20
-52.65838252038771
 30
0.0
 10
318.6324890208401
 20
-52.79601292358331
 30
0.0
  0
SPLINE
  5
124
330
1F
100
AcDbEntity
  8
0
  6
Continuous
 62
     7
370
    25
100
AcDbSpline
210
0.0
220
0.0
230
1.0
 70
     8
 71
     3
 72
    22
 73
    18
 74
     0
 42
0.00000001
 43
0.00000001
 40
0.0
 40
0.0
 40
0.0
 40
0.0
 40
0.0277654485627627
 40
0.1000372464415041
 40
0.1722997644485349
 40
0.2441284356690999
 40
0.3159477402758598
 40
0.385537082914299
 40
0.4551317645592633
 40
0.5242444383060189
 40
0.5933668844866362
 40
0.6644286689000968
 40
0.7354903277075282
 40
0.8079539510009497
 40
0.8804063988302364
 40
0.9402046645035742
 40
1.0
 40
1.0
 40
1.0
 40
1.0
 10
332.5906809553018
 20
-52.79540137393385
 30
0.0
 10
332.5965089230513
 20
-52.69141817148898
 30
0.0
 10
332.6175067414261
 20
-52.31677292759025
 30
0.0
 10
332.4453801837564
 20
-51.67720843301818
 30
0.0
 10
332.0825856602322
 20
-50.91787638374229
 30
0.0
 10
331.5169719061956
 20
-50.23761133164209
 30
0.0
 10
330.7958326994691
 20
-49.66417473946865
 30
0.0
 10
329.9340111283923
 20
-49.219417861557
 30
0.0
 10
328.9707079580641
 20
-48.90438161192356
 30
0.0
 10
327.9209496514666
 20
-48.72373288160932
 30
0.0
 10
326.8066240349601
 20
-48.66642345042271
 30
0.0
 10
325.6506066164598
 20
-48.73293438942337
 30
0.0
 10
324.4754649557563
 20
-48.9114057089492
 30
0.0
 10
323.322448932392
 20
-49.19245613189757
 30
0.0
 10
322.2901192807837
 20
-49.53839571374846
 30
0.0
 10
321.3932546530222
 20
-49.91586344523796
 30
0.0
 10
320.9070527634091
 20
-50.18001088178501
 30
0.0
 10
320.6639577748475
 20
-50.3120813641048
 30
0.0
  0
LWPOLYLINE
  5
125
330
1F
100
AcDbEntity
  8
0
  6
Continuous
 62
     7
370
    25
100
AcDbPolyline
 90
       50
 70
   128
 43
0.0
 10
320.6639577748
 20
-65.009815978
 10
321.3375547904
 20
-64.6678755932
 10
322.0813660783
 20
-64.3784687553
 10
322.8831782775
 20
-64.1463475165
 10
323.729825654
 20
-63.9753233011
 10
324.6074062813
 20
-63.8682043221
 10
325.5015103097
 20
-63.82674947
 10
326.3974565759
 20
-63.8516394326
 10
327.2805336668
 20
-63.9424655172
 10
328.1362414811
 20
-64.097736362
 10
328.9505293201
 20
-64.3149024241
 10
329.7100266
 20
-64.5903978427
 10
330.4022623965
 20
-64.9196989907
 10
331.0158702169
 20
-65.2973987524
 10
331.5407746378
 20
-65.717295308
 10
331.968356743
 20
-66.1724939677
 10
332.2915956464
 20
-66.6555203823
 10
332.5051837739
 20
-67.1584432711
 10
332.6056140145
 20
-67.6730046545
 10
332.5912373064
 20
-68.1907554485
 10
332.4622897147
 20
-68.7031941996
 10
332.2208885553
 20
-69.2019066776
 10
331.8709976286
 20
-69.6787040374
 10
331.4183621339
 20
-70.1257572795
 10
330.8704143336
 20
-70.5357258021
 10
330.2361515153
 20
-70.9018779333
 10
329.525988257
 20
-71.2182014653
 10
328.7515854198
 20
-71.4795023745
 10
327.9256586768
 20
-71.681490107
 10
327.0617697224
 20
-71.82084803
 10
326.1741035893
 20
-71.8952878902
 10
325.2772357308
 20
-71.9035873872
 10
324.3858926924
 20
-71.8456102433
 10
323.5147103021
 20
-71.7223084419
 10
322.6779933508
 20
-71.5357065949
 10
321.8894807075
 20
-71.2888686996
 10
321.1621197282
 20
-70.9858478274
 10
320.50785366
 20
-70.6316195727
 10
319.9374255336
 20
-70.2320003535
 10
319.460201763
 20
-69.7935519064
 10
319.0840183496
 20
-69.3234735429
 10
318.8150522143
 20
-68.8294839366
 10
318.6577197739
 20
-68.3196943831
 10
318.6146044226
 20
-67.802475613
 10
318.6864141132
 20
-67.2863203441
 10
318.8719697326
 20
-66.7797038316
 10
319.1682244628
 20
-66.2909447046
 10
319.5703138092
 20
-65.8280683746
 10
320.0716354758
 20
-65.398675258
 10
320.6639577748
 20
-65.009815978
  0
LWPOLYLINE
  5
126
330
1F
100
AcDbEntity
  8
0
  6
Continuous
 62
     7
370
    25
100
AcDbPolyline
 90
       42
 70
   128
 43
0.0
 10
322.0781713372
 20
-65.8262240899
 10
322.6593030164
 20
-65.5385836979
 10
323.3096833797
 20
-65.3055251383
 10
324.0140680627
 20
-65.1325111063
 10
324.7559468854
 20
-65.0235969041
 10
325.517930837
 20
-64.9813353884
 10
326.2821596596
 20
-65.0067171332
 10
327.0307204771
 20
-65.0991472119
 10
327.7460676586
 20
-65.2564591419
 10
328.4114340724
 20
-65.4749656649
 10
329.0112240937
 20
-65.749545173
 10
329.5313791527
 20
-66.0737617554
 10
329.9597072557
 20
-66.4400160503
 10
330.2861687551
 20
-66.8397233672
 10
330.5031116699
 20
-67.2635149056
 10
330.6054510422
 20
-67.7014573509
 10
330.5907881237
 20
-68.1432857034
 10
330.4594666009
 20
-68.578643881
 10
330.214564539
 20
-68.997327457
 10
329.8618222346
 20
-69.3895228432
 10
329.4095076686
 20
-69.7460373123
 10
328.8682227108
 20
-70.0585144671
 10
328.250654622
 20
-70.3196301081
 10
327.5712786748
 20
-70.5232639059
 10
326.8460188654
 20
-70.664642857
 10
326.0918746692
 20
-70.7404531584
 10
325.326522587
 20
-70.7489178811
 10
324.5679018228
 20
-70.689838619
 10
323.8337938044
 20
-70.56460014
 10
323.1414054015
 20
-70.376137928
 10
322.5069656115
 20
-70.1288693773
 10
321.9453451653
 20
-69.8285902534
 10
321.4697079702
 20
-69.4823388443
 10
321.0912025589
 20
-69.0982309896
 10
320.8187007774
 20
-68.6852698518
 10
320.6585898365
 20
-68.2531348901
 10
320.614622601
 20
-67.8119549817
 10
320.6878296256
 20
-67.3720710096
 10
320.8764949997
 20
-66.9437934814
 10
321.1761965668
 20
-66.5371608593
 10
321.5799095762
 20
-66.1617042674
 10
322.0781713372
 20
-65.8262240899
  0
LWPOLYLINE
  5
127
330
1F
100
AcDbEntity
  8
0
  6
Continuous
 62
     1
370
    25
100
AcDbPolyline
 90
       61
 70
   128
 43
0.0
 10
314.9423144867
 20
21.2243253639
 10
315.0777443062
 20
21.1450774212
 10
316.1150208669
 20
20.4628443502
 10
317.0912557204
 20
19.6829251034
 10
318.0036341288
 20
18.8075683899
 10
318.8495254691
 20
17.8392980898
 10
319.6264908176
 20
16.7809059769
 10
320.3322899819
 20
15.6354436699
 10
320.9648879605
 20
14.4062138329
 10
321.5224608095
 20
13.0967606538
 10
322.0034009021
 20
11.7108596252
 10
322.4063215635
 20
10.2525066584
 10
322.7300610692
 20
8.7259065626
 10
322.9736859943
 20
7.135460921
 10
323.1364939051
 20
5.4857554003
 10
323.2180153843
 20
3.7815465284
 10
323.2180153843
 20
2.0277479806
 10
323.1364939051
 20
0.2294164123
 10
322.9736859943
 20
-1.6082631211
 10
322.7300610692
 20
-3.4799921139
 10
322.4063215635
 20
-5.3803738868
 10
322.0034009021
 20
-7.3039291471
 10
321.5224608095
 20
-9.2451117872
 10
320.9648879605
 20
-11.1983248749
 10
320.3322899819
 20
-13.1579367913
 10
319.6264908176
 20
-15.118297468
 10
318.8495254691
 20
-17.0737546776
 10
318.0036341288
 20
-19.0186703307
 10
317.0912557204
 20
-20.9474367322
 10
316.1150208669
 20
-22.854492749
 10
315.0777443062
 20
-24.7343398451
 10
313.9824167751
 20
-26.5815579347
 10
312.8321963865
 20
-28.3908210097
 10
311.6303995235
 20
-30.1569124965
 10
310.3804912775
 20
-31.8747402959
 10
309.0860754577
 20
-33.5393514659
 10
307.7508841998
 20
-35.1459465014
 10
306.378767206
 20
-36.6898931731
 10
304.9736806447
 20
-38.166739883
 10
303.5396757443
 20
-39.5722284997
 10
302.080887112
 20
-40.9023066359
 10
300.6015208132
 20
-42.1531393317
 10
299.1058422438
 20
-43.3211201129
 10
297.5981638324
 20
-44.4028813883
 10
296.082832606
 20
-45.3953041604
 10
294.564217657
 20
-46.2955270171
 10
293.0466975454
 20
-47.1009543832
 10
291.5346476743
 20
-47.8092640028
 10
290.0324276752
 20
-48.4184136361
 10
288.5443688371
 20
-48.926646947
 10
287.0747616188
 20
-49.3324985672
 10
285.6278432784
 20
-49.6347983215
 10
284.207785656
 20
-49.8326746014
 10
282.8186831455
 20
-49.9255568785
 10
281.4645408888
 20
-49.9131773489
 10
280.1492632288
 20
-49.7955717062
 10
278.8766424513
 20
-49.5730790378
 10
277.6503478515
 20
-49.2463408477
 10
276.4739151543
 20
-48.8162992066
 10
275.3507363196
 20
-48.2841940361
 10
275.0263771335
 20
-48.105859916
  0
ENDSEC
  0
SECTION
  2
OBJECTS
  0
DICTIONARY
  5
C
330
0
100
AcDbDictionary
281
     1
  3
ACAD_GROUP
350
D
  3
ACAD_LAYOUT
350
1A
  3
ACAD_MLINESTYLE
350
17
  3
ACAD_PLOTSETTINGS
350
19
  3
ACAD_PLOTSTYLENAME
350
E
  3
ACAD_SCALELIST
350
47
  3
DWGPROPS
350
128
  0
DICTIONARY
  5
D
102
{ACAD_REACTORS
330
C
102
}
330
C
100
AcDbDictionary
281
     1
  0
DICTIONARY
  5
1A
102
{ACAD_REACTORS
330
C
102
}
330
C
100
AcDbDictionary
281
     1
  3
Layout1
350
1E
  3
Layout2
350
26
  3
Model
350
22
  0
DICTIONARY
  5
17
102
{ACAD_REACTORS
330
C
102
}
330
C
100
AcDbDictionary
281
     1
  3
Standard
350
18
  0
DICTIONARY
  5
19
102
{ACAD_REACTORS
330
C
102
}
330
C
100
AcDbDictionary
281
     1
  0
ACDBDICTIONARYWDFLT
  5
E
102
{ACAD_REACTORS
330
C
102
}
330
C
100
AcDbDictionary
281
     1
  3
Normal
350
F
100
AcDbDictionaryWithDefault
340
F
  0
DICTIONARY
  5
47
102
{ACAD_REACTORS
330
C
102
}
330
C
100
AcDbDictionary
281
     1
  3
A0
350
48
  3
A1
350
49
  3
A2
350
4A
  3
A3
350
4B
  3
A4
350
4C
  3
A5
350
4D
  3
A6
350
4E
  3
A7
350
4F
  3
A8
350
50
  3
A9
350
51
  3
B0
350
52
  3
B1
350
53
  3
B2
350
54
  3
B3
350
55
  3
B4
350
56
  3
B5
350
57
  3
B6
350
58
  3
B7
350
59
  3
B8
350
5A
  3
B9
350
5B
  3
C0
350
5C
  3
C1
350
5D
  3
C2
350
5E
  3
C3
350
5F
  3
C4
350
60
  3
C5
350
61
  3
C6
350
62
  3
C7
350
63
  3
C8
350
64
  3
C9
350
65
  3
D0
350
66
  3
D1
350
67
  3
D2
350
68
  0
XRECORD
  5
128
102
{ACAD_REACTORS
330
C
102
}
330
C
100
AcDbXrecord
280
     1
  1
DWGPROPS COOKIE
  2

  3

  4

  6

  7

  8
b.kav
  9

300
=
301
=
302
=
303
=
304
=
305
=
306
=
307
=
308
=
309
=
 40
0.0
 41
2460346.545750694
 42
2460346.54575088
  1

 90
        0
  0
LAYOUT
  5
1E
102
{ACAD_REACTORS
330
1A
102
}
330
1A
100
AcDbPlotSettings
  1

  2
none_device
  4

  6

 40
0.0
 41
0.0
 42
0.0
 43
0.0
 44
0.0
 45
0.0
 46
0.0
 47
0.0
 48
0.0
 49
0.0
140
0.0
141
0.0
142
1.0
143
1.0
 70
   688
 72
     1
 73
     0
 74
     5
  7

 75
    16
147
1.0
148
0.0
149
0.0
100
AcDbLayout
  1
Layout1
 70
     1
 71
     1
 10
0.0
 20
0.0
 11
420.0
 21
297.0
 12
0.0
 22
0.0
 32
0.0
 14
1.0000000000E+20
 24
1.0000000000E+20
 34
1.0000000000E+20
 15
-1.0000000000E+20
 25
-1.0000000000E+20
 35
-1.0000000000E+20
146
0.0
 13
0.0
 23
0.0
 33
0.0
 16
1.0
 26
0.0
 36
0.0
 17
0.0
 27
1.0
 37
0.0
 76
     0
330
1B
  0
LAYOUT
  5
26
102
{ACAD_REACTORS
330
1A
102
}
330
1A
100
AcDbPlotSettings
  1

  2
none_device
  4

  6

 40
0.0
 41
0.0
 42
0.0
 43
0.0
 44
0.0
 45
0.0
 46
0.0
 47
0.0
 48
0.0
 49
0.0
140
0.0
141
0.0
142
1.0
143
1.0
 70
   688
 72
     1
 73
     0
 74
     5
  7

 75
    16
147
1.0
148
0.0
149
0.0
100
AcDbLayout
  1
Layout2
 70
     1
 71
     2
 10
0.0
 20
0.0
 11
0.0
 21
0.0
 12
0.0
 22
0.0
 32
0.0
 14
0.0
 24
0.0
 34
0.0
 15
0.0
 25
0.0
 35
0.0
146
0.0
 13
0.0
 23
0.0
 33
0.0
 16
1.0
 26
0.0
 36
0.0
 17
0.0
 27
1.0
 37
0.0
 76
     0
330
23
  0
LAYOUT
  5
22
102
{ACAD_REACTORS
330
1A
102
}
330
1A
100
AcDbPlotSettings
  1

  2
none_device
  4
Letter_(8.50_x_11.00_Inches)
  6

 40
6.35
 41
6.35
 42
6.35000508
 43
6.35000508
 44
215.9
 45
279.4
 46
0.0
 47
0.0
 48
0.0
 49
0.0
140
0.0
141
0.0
142
1.0
143
1.0
 70
  1712
 72
     1
 73
     0
 74
     0
  7

 75
     0
147
1.0
148
0.0
149
0.0
100
AcDbLayout
  1
Model
 70
     1
 71
     0
 10
0.0
 20
0.0
 11
279.4
 21
215.9
 12
0.0
 22
0.0
 32
0.0
 14
0.0
 24
0.0
 34
0.0
 15
279.4
 25
215.9
 35
0.0
146
0.0
 13
0.0
 23
0.0
 33
0.0
 16
1.0
 26
0.0
 36
0.0
 17
0.0
 27
1.0
 37
0.0
 76
     0
330
1F
331
29
  0
MLINESTYLE
  5
18
102
{ACAD_REACTORS
330
17
102
}
330
17
100
AcDbMlineStyle
  2
Standard
 70
     0
  3

 62
   256
 51
90.0
 52
90.0
 71
     2
 49
0.5
 62
   256
  6
BYLAYER
 49
-0.5
 62
   256
  6
BYLAYER
  0
ACDBPLACEHOLDER
  5
F
102
{ACAD_REACTORS
330
E
102
}
330
E
  0
SCALE
  5
48
102
{ACAD_REACTORS
330
47
102
}
330
47
100
AcDbScale
 70
     0
300
1:1
140
1.0
141
1.0
290
     1
  0
SCALE
  5
49
102
{ACAD_REACTORS
330
47
102
}
330
47
100
AcDbScale
 70
     0
300
1:2
140
1.0
141
2.0
290
     0
  0
SCALE
  5
4A
102
{ACAD_REACTORS
330
47
102
}
330
47
100
AcDbScale
 70
     0
300
1:4
140
1.0
141
4.0
290
     0
  0
SCALE
  5
4B
102
{ACAD_REACTORS
330
47
102
}
330
47
100
AcDbScale
 70
     0
300
1:5
140
1.0
141
5.0
290
     0
  0
SCALE
  5
4C
102
{ACAD_REACTORS
330
47
102
}
330
47
100
AcDbScale
 70
     0
300
1:8
140
1.0
141
8.0
290
     0
  0
SCALE
  5
4D
102
{ACAD_REACTORS
330
47
102
}
330
47
100
AcDbScale
 70
     0
300
1:10
140
1.0
141
10.0
290
     0
  0
SCALE
  5
4E
102
{ACAD_REACTORS
330
47
102
}
330
47
100
AcDbScale
 70
     0
300
1:16
140
1.0
141
16.0
290
     0
  0
SCALE
  5
4F
102
{ACAD_REACTORS
330
47
102
}
330
47
100
AcDbScale
 70
     0
300
1:20
140
1.0
141
20.0
290
     0
  0
SCALE
  5
50
102
{ACAD_REACTORS
330
47
102
}
330
47
100
AcDbScale
 70
     0
300
1:30
140
1.0
141
30.0
290
     0
  0
SCALE
  5
51
102
{ACAD_REACTORS
330
47
102
}
330
47
100
AcDbScale
 70
     0
300
1:40
140
1.0
141
40.0
290
     0
  0
SCALE
  5
52
102
{ACAD_REACTORS
330
47
102
}
330
47
100
AcDbScale
 70
     0
300
1:50
140
1.0
141
50.0
290
     0
  0
SCALE
  5
53
102
{ACAD_REACTORS
330
47
102
}
330
47
100
AcDbScale
 70
     0
300
1:100
140
1.0
141
100.0
290
     0
  0
SCALE
  5
54
102
{ACAD_REACTORS
330
47
102
}
330
47
100
AcDbScale
 70
     0
300
2:1
140
2.0
141
1.0
290
     0
  0
SCALE
  5
55
102
{ACAD_REACTORS
330
47
102
}
330
47
100
AcDbScale
 70
     0
300
4:1
140
4.0
141
1.0
290
     0
  0
SCALE
  5
56
102
{ACAD_REACTORS
330
47
102
}
330
47
100
AcDbScale
 70
     0
300
8:1
140
8.0
141
1.0
290
     0
  0
SCALE
  5
57
102
{ACAD_REACTORS
330
47
102
}
330
47
100
AcDbScale
 70
     0
300
10:1
140
10.0
141
1.0
290
     0
  0
SCALE
  5
58
102
{ACAD_REACTORS
330
47
102
}
330
47
100
AcDbScale
 70
     0
300
100:1
140
100.0
141
1.0
290
     0
  0
SCALE
  5
59
102
{ACAD_REACTORS
330
47
102
}
330
47
100
AcDbScale
 70
     0
300
1/128" = 1'-0"
140
0.0078125
141
12.0
290
     0
  0
SCALE
  5
5A
102
{ACAD_REACTORS
330
47
102
}
330
47
100
AcDbScale
 70
     0
300
1/64" = 1'-0"
140
0.015625
141
12.0
290
     0
  0
SCALE
  5
5B
102
{ACAD_REACTORS
330
47
102
}
330
47
100
AcDbScale
 70
     0
300
1/32" = 1'-0"
140
0.03125
141
12.0
290
     0
  0
SCALE
  5
5C
102
{ACAD_REACTORS
330
47
102
}
330
47
100
AcDbScale
 70
     0
300
1/16" = 1'-0"
140
0.0625
141
12.0
290
     0
  0
SCALE
  5
5D
102
{ACAD_REACTORS
330
47
102
}
330
47
100
AcDbScale
 70
     0
300
3/32" = 1'-0"
140
0.09375
141
12.0
290
     0
  0
SCALE
  5
5E
102
{ACAD_REACTORS
330
47
102
}
330
47
100
AcDbScale
 70
     0
300
1/8" = 1'-0"
140
0.125
141
12.0
290
     0
  0
SCALE
  5
5F
102
{ACAD_REACTORS
330
47
102
}
330
47
100
AcDbScale
 70
     0
300
3/16" = 1'-0"
140
0.1875
141
12.0
290
     0
  0
SCALE
  5
60
102
{ACAD_REACTORS
330
47
102
}
330
47
100
AcDbScale
 70
     0
300
1/4" = 1'-0"
140
0.25
141
12.0
290
     0
  0
SCALE
  5
61
102
{ACAD_REACTORS
330
47
102
}
330
47
100
AcDbScale
 70
     0
300
3/8" = 1'-0"
140
0.375
141
12.0
290
     0
  0
SCALE
  5
62
102
{ACAD_REACTORS
330
47
102
}
330
47
100
AcDbScale
 70
     0
300
1/2" = 1'-0"
140
0.5
141
12.0
290
     0
  0
SCALE
  5
63
102
{ACAD_REACTORS
330
47
102
}
330
47
100
AcDbScale
 70
     0
300
3/4" = 1'-0"
140
0.75
141
12.0
290
     0
  0
SCALE
  5
64
102
{ACAD_REACTORS
330
47
102
}
330
47
100
AcDbScale
 70
     0
300
1" = 1'-0"
140
1.0
141
12.0
290
     0
  0
SCALE
  5
65
102
{ACAD_REACTORS
330
47
102
}
330
47
100
AcDbScale
 70
     0
300
1-1/2" = 1'-0"
140
1.5
141
12.0
290
     0
  0
SCALE
  5
66
102
{ACAD_REACTORS
330
47
102
}
330
47
100
AcDbScale
 70
     0
300
3" = 1'-0"
140
3.0
141
12.0
290
     0
  0
SCALE
  5
67
102
{ACAD_REACTORS
330
47
102
}
330
47
100
AcDbScale
 70
     0
300
6" = 1'-0"
140
6.0
141
12.0
290
     0
  0
SCALE
  5
68
102
{ACAD_REACTORS
330
47
102
}
330
47
100
AcDbScale
 70
     0
300
1'-0" = 1'-0"
140
12.0
141
12.0
290
     0
  0
ENDSEC
  0
EOF
